  0
SECTION
  2
HEADER
  9
$ACADVER
  1
AC1009
  9
$LUNITS
  70
2
  9
$LIMMIN
  10
390415.727
  20
4135220.200
  9
$LIMMAX
  10
608212.551
  20
4430023.632
  9
$EXTMIN
  10
390415.727
  20
4135220.200
  9
$EXTMAX
  10
608212.551
  20
4430023.632
  999
Created by Global Mapper
  999
Projection: UTM
  999
Datum: NAD83
  999
Ground Units: meters
  999
ZONE: 14
  0
ENDSEC
  0
SECTION
  2
BLOCKS
  0
BLOCK
  8
FeatureAttribs
  70
0
  2
FEATURE
  3
FEATURE
  10
0.00000000
  20
0.00000000
  0
ATTDEF
  8
FeatureAttribs
  70
0
  1
 
  2
NAME
  3
NAME
  10
0.00000000
  20
0.00000000
  40
1.00000000
  0
ENDBLK
  0
ENDSEC
  0
SECTION
  2
ENTITIES
  0
INSERT
  8
FeatureAttribs
  2
FEATURE
  41
1
  42
1
  43
1
  50
0
  10
536811.910
  20
4327765.504
 66
1
  0
ATTRIB
  8
FeatureAttribs
 70
0
  1
raise elevation
  2
NAME
  10
536811.910
  20
4327765.504
 40
366.53038
  0
SEQEND
  0
POLYLINE
  8
Unknown_Area_Type
  70
1
  66
1
  0
VERTEX
  8
Unknown_Area_Type
  10
536699.692
  20
4327862.341
  0
VERTEX
  8
Unknown_Area_Type
  10
536924.127
  20
4327862.341
  0
VERTEX
  8
Unknown_Area_Type
  10
536924.127
  20
4327668.666
  0
VERTEX
  8
Unknown_Area_Type
  10
536699.692
  20
4327668.666
  0
VERTEX
  8
Unknown_Area_Type
  10
536699.692
  20
4327862.341
  0
SEQEND
  8
Unknown_Area_Type
  0
INSERT
  8
FeatureAttribs
  2
FEATURE
  41
1
  42
1
  43
1
  50
0
  10
537395.912
  20
4327393.707
 66
1
  0
ATTRIB
  8
FeatureAttribs
 70
0
  1
raise elevation
  2
NAME
  10
537395.912
  20
4327393.707
 40
366.53038
  0
SEQEND
  0
POLYLINE
  8
Unknown_Area_Type
  70
1
  66
1
  0
VERTEX
  8
Unknown_Area_Type
  10
537296.501
  20
4327472.750
  0
VERTEX
  8
Unknown_Area_Type
  10
537495.322
  20
4327472.750
  0
VERTEX
  8
Unknown_Area_Type
  10
537495.322
  20
4327314.664
  0
VERTEX
  8
Unknown_Area_Type
  10
537296.501
  20
4327314.664
  0
VERTEX
  8
Unknown_Area_Type
  10
537296.501
  20
4327472.750
  0
SEQEND
  8
Unknown_Area_Type
  0
INSERT
  8
FeatureAttribs
  2
FEATURE
  41
1
  42
1
  43
1
  50
0
  10
501460.582
  20
4327747.889
 66
1
  0
ATTRIB
  8
FeatureAttribs
 70
0
  1
raise elevation
  2
NAME
  10
501460.582
  20
4327747.889
 40
366.53038
  0
SEQEND
  0
POLYLINE
  8
Unknown_Area_Type
  70
1
  66
1
  0
VERTEX
  8
Unknown_Area_Type
  10
501307.351
  20
4327855.169
  0
VERTEX
  8
Unknown_Area_Type
  10
501613.813
  20
4327855.169
  0
VERTEX
  8
Unknown_Area_Type
  10
501613.813
  20
4327640.608
  0
VERTEX
  8
Unknown_Area_Type
  10
501307.351
  20
4327640.608
  0
VERTEX
  8
Unknown_Area_Type
  10
501307.351
  20
4327855.169
  0
SEQEND
  8
Unknown_Area_Type
  0
INSERT
  8
FeatureAttribs
  2
FEATURE
  41
1
  42
1
  43
1
  50
0
  10
498381.284
  20
4327761.509
 66
1
  0
ATTRIB
  8
FeatureAttribs
 70
0
  1
raise elevation
  2
NAME
  10
498381.284
  20
4327761.509
 40
366.53038
  0
SEQEND
  0
POLYLINE
  8
Unknown_Area_Type
  70
1
  66
1
  0
VERTEX
  8
Unknown_Area_Type
  10
498210.638
  20
4327882.439
  0
VERTEX
  8
Unknown_Area_Type
  10
498551.930
  20
4327882.439
  0
VERTEX
  8
Unknown_Area_Type
  10
498551.930
  20
4327640.579
  0
VERTEX
  8
Unknown_Area_Type
  10
498210.638
  20
4327640.579
  0
VERTEX
  8
Unknown_Area_Type
  10
498210.638
  20
4327882.439
  0
SEQEND
  8
Unknown_Area_Type
  0
INSERT
  8
FeatureAttribs
  2
FEATURE
  41
1
  42
1
  43
1
  50
0
  10
529721.506
  20
4326642.207
 66
1
  0
ATTRIB
  8
FeatureAttribs
 70
0
  1
raise elevation
  2
NAME
  10
529721.506
  20
4326642.207
 40
366.53038
  0
SEQEND
  0
POLYLINE
  8
Unknown_Area_Type
  70
1
  66
1
  0
VERTEX
  8
Unknown_Area_Type
  10
529934.558
  20
4326488.842
  0
VERTEX
  8
Unknown_Area_Type
  10
529508.454
  20
4326488.842
  0
VERTEX
  8
Unknown_Area_Type
  10
529508.454
  20
4326795.572
  0
VERTEX
  8
Unknown_Area_Type
  10
529934.558
  20
4326795.572
  0
VERTEX
  8
Unknown_Area_Type
  10
529934.558
  20
4326488.842
  0
SEQEND
  8
Unknown_Area_Type
  0
INSERT
  8
FeatureAttribs
  2
FEATURE
  41
1
  42
1
  43
1
  50
0
  10
538340.544
  20
4326813.056
 66
1
  0
ATTRIB
  8
FeatureAttribs
 70
0
  1
raise elevation
  2
NAME
  10
538340.544
  20
4326813.056
 40
366.53038
  0
SEQEND
  0
POLYLINE
  8
Unknown_Area_Type
  70
1
  66
1
  0
VERTEX
  8
Unknown_Area_Type
  10
538201.882
  20
4326710.125
  0
VERTEX
  8
Unknown_Area_Type
  10
538201.882
  20
4326915.986
  0
VERTEX
  8
Unknown_Area_Type
  10
538479.207
  20
4326915.986
  0
VERTEX
  8
Unknown_Area_Type
  10
538479.207
  20
4326710.125
  0
VERTEX
  8
Unknown_Area_Type
  10
538201.882
  20
4326710.125
  0
SEQEND
  8
Unknown_Area_Type
  0
INSERT
  8
FeatureAttribs
  2
FEATURE
  41
1
  42
1
  43
1
  50
0
  10
538354.144
  20
4326518.398
 66
1
  0
ATTRIB
  8
FeatureAttribs
 70
0
  1
raise elevation
  2
NAME
  10
538354.144
  20
4326518.398
 40
366.53038
  0
SEQEND
  0
POLYLINE
  8
Unknown_Area_Type
  70
1
  66
1
  0
VERTEX
  8
Unknown_Area_Type
  10
538207.749
  20
4326607.729
  0
VERTEX
  8
Unknown_Area_Type
  10
538500.540
  20
4326607.729
  0
VERTEX
  8
Unknown_Area_Type
  10
538500.540
  20
4326429.067
  0
VERTEX
  8
Unknown_Area_Type
  10
538207.749
  20
4326429.067
  0
VERTEX
  8
Unknown_Area_Type
  10
538207.749
  20
4326607.729
  0
SEQEND
  8
Unknown_Area_Type
  0
INSERT
  8
FeatureAttribs
  2
FEATURE
  41
1
  42
1
  43
1
  50
0
  10
539183.635
  20
4327299.996
 66
1
  0
ATTRIB
  8
FeatureAttribs
 70
0
  1
raise elevation
  2
NAME
  10
539183.635
  20
4327299.996
 40
366.53038
  0
SEQEND
  0
POLYLINE
  8
Unknown_Area_Type
  70
1
  66
1
  0
VERTEX
  8
Unknown_Area_Type
  10
539057.098
  20
4327406.735
  0
VERTEX
  8
Unknown_Area_Type
  10
539310.171
  20
4327406.735
  0
VERTEX
  8
Unknown_Area_Type
  10
539310.171
  20
4327193.257
  0
VERTEX
  8
Unknown_Area_Type
  10
539057.098
  20
4327193.257
  0
VERTEX
  8
Unknown_Area_Type
  10
539057.098
  20
4327406.735
  0
SEQEND
  8
Unknown_Area_Type
  0
INSERT
  8
FeatureAttribs
  2
FEATURE
  41
1
  42
1
  43
1
  50
0
  10
502297.093
  20
4325241.177
 66
1
  0
ATTRIB
  8
FeatureAttribs
 70
0
  1
raise elevation
  2
NAME
  10
502297.093
  20
4325241.177
 40
366.53038
  0
SEQEND
  0
POLYLINE
  8
Unknown_Area_Type
  70
1
  66
1
  0
VERTEX
  8
Unknown_Area_Type
  10
502123.135
  20
4325431.063
  0
VERTEX
  8
Unknown_Area_Type
  10
502471.050
  20
4325431.063
  0
VERTEX
  8
Unknown_Area_Type
  10
502471.050
  20
4325051.292
  0
VERTEX
  8
Unknown_Area_Type
  10
502123.135
  20
4325051.292
  0
VERTEX
  8
Unknown_Area_Type
  10
502123.135
  20
4325431.063
  0
SEQEND
  8
Unknown_Area_Type
  0
INSERT
  8
FeatureAttribs
  2
FEATURE
  41
1
  42
1
  43
1
  50
0
  10
504508.311
  20
4322948.060
 66
1
  0
ATTRIB
  8
FeatureAttribs
 70
0
  1
raise elevation
  2
NAME
  10
504508.311
  20
4322948.060
 40
366.53038
  0
SEQEND
  0
POLYLINE
  8
Unknown_Area_Type
  70
1
  66
1
  0
VERTEX
  8
Unknown_Area_Type
  10
504307.022
  20
4323084.954
  0
VERTEX
  8
Unknown_Area_Type
  10
504709.600
  20
4323084.954
  0
VERTEX
  8
Unknown_Area_Type
  10
504709.600
  20
4322811.165
  0
VERTEX
  8
Unknown_Area_Type
  10
504307.022
  20
4322811.165
  0
VERTEX
  8
Unknown_Area_Type
  10
504307.022
  20
4323084.954
  0
SEQEND
  8
Unknown_Area_Type
  0
INSERT
  8
FeatureAttribs
  2
FEATURE
  41
1
  42
1
  43
1
  50
0
  10
516800.444
  20
4323660.750
 66
1
  0
ATTRIB
  8
FeatureAttribs
 70
0
  1
raise elevation
  2
NAME
  10
516800.444
  20
4323660.750
 40
366.53038
  0
SEQEND
  0
POLYLINE
  8
Unknown_Area_Type
  70
1
  66
1
  0
VERTEX
  8
Unknown_Area_Type
  10
516662.304
  20
4323829.465
  0
VERTEX
  8
Unknown_Area_Type
  10
516938.583
  20
4323829.465
  0
VERTEX
  8
Unknown_Area_Type
  10
516938.583
  20
4323492.035
  0
VERTEX
  8
Unknown_Area_Type
  10
516662.304
  20
4323492.035
  0
VERTEX
  8
Unknown_Area_Type
  10
516662.304
  20
4323829.465
  0
SEQEND
  8
Unknown_Area_Type
  0
INSERT
  8
FeatureAttribs
  2
FEATURE
  41
1
  42
1
  43
1
  50
0
  10
532446.064
  20
4323606.633
 66
1
  0
ATTRIB
  8
FeatureAttribs
 70
0
  1
raise elevation
  2
NAME
  10
532446.064
  20
4323606.633
 40
366.53038
  0
SEQEND
  0
POLYLINE
  8
Unknown_Area_Type
  70
1
  66
1
  0
VERTEX
  8
Unknown_Area_Type
  10
532271.468
  20
4323734.829
  0
VERTEX
  8
Unknown_Area_Type
  10
532620.660
  20
4323734.829
  0
VERTEX
  8
Unknown_Area_Type
  10
532620.660
  20
4323478.438
  0
VERTEX
  8
Unknown_Area_Type
  10
532271.468
  20
4323478.438
  0
VERTEX
  8
Unknown_Area_Type
  10
532271.468
  20
4323734.829
  0
SEQEND
  8
Unknown_Area_Type
  0
INSERT
  8
FeatureAttribs
  2
FEATURE
  41
1
  42
1
  43
1
  50
0
  10
543534.328
  20
4323678.874
 66
1
  0
ATTRIB
  8
FeatureAttribs
 70
0
  1
raise elevation
  2
NAME
  10
543534.328
  20
4323678.874
 40
366.53038
  0
SEQEND
  0
POLYLINE
  8
Unknown_Area_Type
  70
1
  66
1
  0
VERTEX
  8
Unknown_Area_Type
  10
543393.974
  20
4323801.018
  0
VERTEX
  8
Unknown_Area_Type
  10
543674.681
  20
4323801.018
  0
VERTEX
  8
Unknown_Area_Type
  10
543674.681
  20
4323556.730
  0
VERTEX
  8
Unknown_Area_Type
  10
543393.974
  20
4323556.730
  0
VERTEX
  8
Unknown_Area_Type
  10
543393.974
  20
4323801.018
  0
SEQEND
  8
Unknown_Area_Type
  0
INSERT
  8
FeatureAttribs
  2
FEATURE
  41
1
  42
1
  43
1
  50
0
  10
544800.312
  20
4322749.969
 66
1
  0
ATTRIB
  8
FeatureAttribs
 70
0
  1
raise elevation
  2
NAME
  10
544800.312
  20
4322749.969
 40
366.53038
  0
SEQEND
  0
POLYLINE
  8
Unknown_Area_Type
  70
1
  66
1
  0
VERTEX
  8
Unknown_Area_Type
  10
544620.396
  20
4322911.894
  0
VERTEX
  8
Unknown_Area_Type
  10
544980.229
  20
4322911.894
  0
VERTEX
  8
Unknown_Area_Type
  10
544980.229
  20
4322588.044
  0
VERTEX
  8
Unknown_Area_Type
  10
544620.396
  20
4322588.044
  0
VERTEX
  8
Unknown_Area_Type
  10
544620.396
  20
4322911.894
  0
SEQEND
  8
Unknown_Area_Type
  0
INSERT
  8
FeatureAttribs
  2
FEATURE
  41
1
  42
1
  43
1
  50
0
  10
536176.473
  20
4320038.802
 66
1
  0
ATTRIB
  8
FeatureAttribs
 70
0
  1
raise elevation
  2
NAME
  10
536176.473
  20
4320038.802
 40
366.53038
  0
SEQEND
  0
POLYLINE
  8
Unknown_Area_Type
  70
1
  66
1
  0
VERTEX
  8
Unknown_Area_Type
  10
536051.838
  20
4320130.646
  0
VERTEX
  8
Unknown_Area_Type
  10
536301.107
  20
4320130.646
  0
VERTEX
  8
Unknown_Area_Type
  10
536301.107
  20
4319946.958
  0
VERTEX
  8
Unknown_Area_Type
  10
536051.838
  20
4319946.958
  0
VERTEX
  8
Unknown_Area_Type
  10
536051.838
  20
4320130.646
  0
SEQEND
  8
Unknown_Area_Type
  0
INSERT
  8
FeatureAttribs
  2
FEATURE
  41
1
  42
1
  43
1
  50
0
  10
527771.575
  20
4321698.914
 66
1
  0
ATTRIB
  8
FeatureAttribs
 70
0
  1
raise elevation
  2
NAME
  10
527771.575
  20
4321698.914
 40
366.53038
  0
SEQEND
  0
POLYLINE
  8
Unknown_Area_Type
  70
1
  66
1
  0
VERTEX
  8
Unknown_Area_Type
  10
527691.099
  20
4321801.169
  0
VERTEX
  8
Unknown_Area_Type
  10
527852.052
  20
4321801.169
  0
VERTEX
  8
Unknown_Area_Type
  10
527852.052
  20
4321596.659
  0
VERTEX
  8
Unknown_Area_Type
  10
527691.099
  20
4321596.659
  0
VERTEX
  8
Unknown_Area_Type
  10
527691.099
  20
4321801.169
  0
SEQEND
  8
Unknown_Area_Type
  0
INSERT
  8
FeatureAttribs
  2
FEATURE
  41
1
  42
1
  43
1
  50
0
  10
489680.694
  20
4318442.782
 66
1
  0
ATTRIB
  8
FeatureAttribs
 70
0
  1
raise elevation
  2
NAME
  10
489680.694
  20
4318442.782
 40
366.53038
  0
SEQEND
  0
POLYLINE
  8
Unknown_Area_Type
  70
1
  66
1
  0
VERTEX
  8
Unknown_Area_Type
  10
489539.724
  20
4318557.263
  0
VERTEX
  8
Unknown_Area_Type
  10
489821.664
  20
4318557.263
  0
VERTEX
  8
Unknown_Area_Type
  10
489821.664
  20
4318328.302
  0
VERTEX
  8
Unknown_Area_Type
  10
489539.724
  20
4318328.302
  0
VERTEX
  8
Unknown_Area_Type
  10
489539.724
  20
4318557.263
  0
SEQEND
  8
Unknown_Area_Type
  0
INSERT
  8
FeatureAttribs
  2
FEATURE
  41
1
  42
1
  43
1
  50
0
  10
503832.229
  20
4319260.187
 66
1
  0
ATTRIB
  8
FeatureAttribs
 70
0
  1
raise elevation
  2
NAME
  10
503832.229
  20
4319260.187
 40
366.53038
  0
SEQEND
  0
POLYLINE
  8
Unknown_Area_Type
  70
1
  66
1
  0
VERTEX
  8
Unknown_Area_Type
  10
503548.969
  20
4319450.480
  0
VERTEX
  8
Unknown_Area_Type
  10
504115.489
  20
4319450.480
  0
VERTEX
  8
Unknown_Area_Type
  10
504115.489
  20
4319069.895
  0
VERTEX
  8
Unknown_Area_Type
  10
503548.969
  20
4319069.895
  0
VERTEX
  8
Unknown_Area_Type
  10
503548.969
  20
4319450.480
  0
SEQEND
  8
Unknown_Area_Type
  0
INSERT
  8
FeatureAttribs
  2
FEATURE
  41
1
  42
1
  43
1
  50
0
  10
533922.162
  20
4318547.987
 66
1
  0
ATTRIB
  8
FeatureAttribs
 70
0
  1
raise elevation
  2
NAME
  10
533922.162
  20
4318547.987
 40
366.53038
  0
SEQEND
  0
POLYLINE
  8
Unknown_Area_Type
  70
1
  66
1
  0
VERTEX
  8
Unknown_Area_Type
  10
533821.013
  20
4318629.740
  0
VERTEX
  8
Unknown_Area_Type
  10
534023.310
  20
4318629.740
  0
VERTEX
  8
Unknown_Area_Type
  10
534023.310
  20
4318466.234
  0
VERTEX
  8
Unknown_Area_Type
  10
533821.013
  20
4318466.234
  0
VERTEX
  8
Unknown_Area_Type
  10
533821.013
  20
4318629.740
  0
SEQEND
  8
Unknown_Area_Type
  0
INSERT
  8
FeatureAttribs
  2
FEATURE
  41
1
  42
1
  43
1
  50
0
  10
543291.248
  20
4317721.070
 66
1
  0
ATTRIB
  8
FeatureAttribs
 70
0
  1
raise elevation
  2
NAME
  10
543291.248
  20
4317721.070
 40
366.53038
  0
SEQEND
  0
POLYLINE
  8
Unknown_Area_Type
  70
1
  66
1
  0
VERTEX
  8
Unknown_Area_Type
  10
543136.726
  20
4317842.384
  0
VERTEX
  8
Unknown_Area_Type
  10
543445.770
  20
4317842.384
  0
VERTEX
  8
Unknown_Area_Type
  10
543445.770
  20
4317599.756
  0
VERTEX
  8
Unknown_Area_Type
  10
543136.726
  20
4317599.756
  0
VERTEX
  8
Unknown_Area_Type
  10
543136.726
  20
4317842.384
  0
SEQEND
  8
Unknown_Area_Type
  0
INSERT
  8
FeatureAttribs
  2
FEATURE
  41
1
  42
1
  43
1
  50
0
  10
542278.304
  20
4317581.069
 66
1
  0
ATTRIB
  8
FeatureAttribs
 70
0
  1
raise elevation
  2
NAME
  10
542278.304
  20
4317581.069
 40
366.53038
  0
SEQEND
  0
POLYLINE
  8
Unknown_Area_Type
  70
1
  66
1
  0
VERTEX
  8
Unknown_Area_Type
  10
542046.529
  20
4317698.544
  0
VERTEX
  8
Unknown_Area_Type
  10
542510.079
  20
4317698.544
  0
VERTEX
  8
Unknown_Area_Type
  10
542510.079
  20
4317463.594
  0
VERTEX
  8
Unknown_Area_Type
  10
542046.529
  20
4317463.594
  0
VERTEX
  8
Unknown_Area_Type
  10
542046.529
  20
4317698.544
  0
SEQEND
  8
Unknown_Area_Type
  0
INSERT
  8
FeatureAttribs
  2
FEATURE
  41
1
  42
1
  43
1
  50
0
  10
535729.919
  20
4317711.783
 66
1
  0
ATTRIB
  8
FeatureAttribs
 70
0
  1
raise elevation
  2
NAME
  10
535729.919
  20
4317711.783
 40
366.53038
  0
SEQEND
  0
POLYLINE
  8
Unknown_Area_Type
  70
1
  66
1
  0
VERTEX
  8
Unknown_Area_Type
  10
535567.524
  20
4317849.912
  0
VERTEX
  8
Unknown_Area_Type
  10
535892.314
  20
4317849.912
  0
VERTEX
  8
Unknown_Area_Type
  10
535892.314
  20
4317573.654
  0
VERTEX
  8
Unknown_Area_Type
  10
535567.524
  20
4317573.654
  0
VERTEX
  8
Unknown_Area_Type
  10
535567.524
  20
4317849.912
  0
SEQEND
  8
Unknown_Area_Type
  0
INSERT
  8
FeatureAttribs
  2
FEATURE
  41
1
  42
1
  43
1
  50
0
  10
531134.176
  20
4316816.755
 66
1
  0
ATTRIB
  8
FeatureAttribs
 70
0
  1
raise elevation
  2
NAME
  10
531134.176
  20
4316816.755
 40
366.53038
  0
SEQEND
  0
POLYLINE
  8
Unknown_Area_Type
  70
1
  66
1
  0
VERTEX
  8
Unknown_Area_Type
  10
530991.095
  20
4316938.207
  0
VERTEX
  8
Unknown_Area_Type
  10
531277.256
  20
4316938.207
  0
VERTEX
  8
Unknown_Area_Type
  10
531277.256
  20
4316695.303
  0
VERTEX
  8
Unknown_Area_Type
  10
530991.095
  20
4316695.303
  0
VERTEX
  8
Unknown_Area_Type
  10
530991.095
  20
4316938.207
  0
SEQEND
  8
Unknown_Area_Type
  0
INSERT
  8
FeatureAttribs
  2
FEATURE
  41
1
  42
1
  43
1
  50
0
  10
494890.551
  20
4317181.056
 66
1
  0
ATTRIB
  8
FeatureAttribs
 70
0
  1
raise elevation
  2
NAME
  10
494890.551
  20
4317181.056
 40
366.53038
  0
SEQEND
  0
POLYLINE
  8
Unknown_Area_Type
  70
1
  66
1
  0
VERTEX
  8
Unknown_Area_Type
  10
494779.818
  20
4317255.015
  0
VERTEX
  8
Unknown_Area_Type
  10
495001.284
  20
4317255.015
  0
VERTEX
  8
Unknown_Area_Type
  10
495001.284
  20
4317107.097
  0
VERTEX
  8
Unknown_Area_Type
  10
494779.818
  20
4317107.097
  0
VERTEX
  8
Unknown_Area_Type
  10
494779.818
  20
4317255.015
  0
SEQEND
  8
Unknown_Area_Type
  0
INSERT
  8
FeatureAttribs
  2
FEATURE
  41
1
  42
1
  43
1
  50
0
  10
490222.062
  20
4317303.785
 66
1
  0
ATTRIB
  8
FeatureAttribs
 70
0
  1
raise elevation
  2
NAME
  10
490222.062
  20
4317303.785
 40
366.53038
  0
SEQEND
  0
POLYLINE
  8
Unknown_Area_Type
  70
1
  66
1
  0
VERTEX
  8
Unknown_Area_Type
  10
490374.462
  20
4317173.610
  0
VERTEX
  8
Unknown_Area_Type
  10
490069.662
  20
4317173.610
  0
VERTEX
  8
Unknown_Area_Type
  10
490069.662
  20
4317433.960
  0
VERTEX
  8
Unknown_Area_Type
  10
490374.462
  20
4317433.960
  0
VERTEX
  8
Unknown_Area_Type
  10
490374.462
  20
4317173.610
  0
SEQEND
  8
Unknown_Area_Type
  0
INSERT
  8
FeatureAttribs
  2
FEATURE
  41
1
  42
1
  43
1
  50
0
  10
454321.621
  20
4316198.465
 66
1
  0
ATTRIB
  8
FeatureAttribs
 70
0
  1
raise elevation
  2
NAME
  10
454321.621
  20
4316198.465
 40
366.53038
  0
SEQEND
  0
POLYLINE
  8
Unknown_Area_Type
  70
1
  66
1
  0
VERTEX
  8
Unknown_Area_Type
  10
454177.066
  20
4316278.167
  0
VERTEX
  8
Unknown_Area_Type
  10
454466.177
  20
4316278.167
  0
VERTEX
  8
Unknown_Area_Type
  10
454466.177
  20
4316118.763
  0
VERTEX
  8
Unknown_Area_Type
  10
454177.066
  20
4316118.763
  0
VERTEX
  8
Unknown_Area_Type
  10
454177.066
  20
4316278.167
  0
SEQEND
  8
Unknown_Area_Type
  0
INSERT
  8
FeatureAttribs
  2
FEATURE
  41
1
  42
1
  43
1
  50
0
  10
478111.448
  20
4315503.560
 66
1
  0
ATTRIB
  8
FeatureAttribs
 70
0
  1
raise elevation
  2
NAME
  10
478111.448
  20
4315503.560
 40
366.53038
  0
SEQEND
  0
POLYLINE
  8
Unknown_Area_Type
  70
1
  66
1
  0
VERTEX
  8
Unknown_Area_Type
  10
477985.426
  20
4315644.443
  0
VERTEX
  8
Unknown_Area_Type
  10
478237.471
  20
4315644.443
  0
VERTEX
  8
Unknown_Area_Type
  10
478237.471
  20
4315362.677
  0
VERTEX
  8
Unknown_Area_Type
  10
477985.426
  20
4315362.677
  0
VERTEX
  8
Unknown_Area_Type
  10
477985.426
  20
4315644.443
  0
SEQEND
  8
Unknown_Area_Type
  0
INSERT
  8
FeatureAttribs
  2
FEATURE
  41
1
  42
1
  43
1
  50
0
  10
489499.474
  20
4314397.810
 66
1
  0
ATTRIB
  8
FeatureAttribs
 70
0
  1
raise elevation
  2
NAME
  10
489499.474
  20
4314397.810
 40
366.53038
  0
SEQEND
  0
POLYLINE
  8
Unknown_Area_Type
  70
1
  66
1
  0
VERTEX
  8
Unknown_Area_Type
  10
489297.928
  20
4314593.354
  0
VERTEX
  8
Unknown_Area_Type
  10
489701.020
  20
4314593.354
  0
VERTEX
  8
Unknown_Area_Type
  10
489701.020
  20
4314202.265
  0
VERTEX
  8
Unknown_Area_Type
  10
489297.928
  20
4314202.265
  0
VERTEX
  8
Unknown_Area_Type
  10
489297.928
  20
4314593.354
  0
SEQEND
  8
Unknown_Area_Type
  0
INSERT
  8
FeatureAttribs
  2
FEATURE
  41
1
  42
1
  43
1
  50
0
  10
540766.828
  20
4315796.719
 66
1
  0
ATTRIB
  8
FeatureAttribs
 70
0
  1
raise elevation
  2
NAME
  10
540766.828
  20
4315796.719
 40
366.53038
  0
SEQEND
  0
POLYLINE
  8
Unknown_Area_Type
  70
1
  66
1
  0
VERTEX
  8
Unknown_Area_Type
  10
540658.701
  20
4315867.627
  0
VERTEX
  8
Unknown_Area_Type
  10
540874.954
  20
4315867.627
  0
VERTEX
  8
Unknown_Area_Type
  10
540874.954
  20
4315725.810
  0
VERTEX
  8
Unknown_Area_Type
  10
540658.701
  20
4315725.810
  0
VERTEX
  8
Unknown_Area_Type
  10
540658.701
  20
4315867.627
  0
SEQEND
  8
Unknown_Area_Type
  0
INSERT
  8
FeatureAttribs
  2
FEATURE
  41
1
  42
1
  43
1
  50
0
  10
523212.429
  20
4309995.994
 66
1
  0
ATTRIB
  8
FeatureAttribs
 70
0
  1
spikes on seamline
  2
NAME
  10
523212.429
  20
4309995.994
 40
366.53038
  0
SEQEND
  0
POLYLINE
  8
Unknown_Area_Type
  70
1
  66
1
  0
VERTEX
  8
Unknown_Area_Type
  10
523117.179
  20
4310059.494
  0
VERTEX
  8
Unknown_Area_Type
  10
523307.679
  20
4310059.494
  0
VERTEX
  8
Unknown_Area_Type
  10
523307.679
  20
4309932.494
  0
VERTEX
  8
Unknown_Area_Type
  10
523117.179
  20
4309932.494
  0
VERTEX
  8
Unknown_Area_Type
  10
523117.179
  20
4310059.494
  0
SEQEND
  8
Unknown_Area_Type
  0
INSERT
  8
FeatureAttribs
  2
FEATURE
  41
1
  42
1
  43
1
  50
0
  10
486556.836
  20
4307733.557
 66
1
  0
ATTRIB
  8
FeatureAttribs
 70
0
  1
raise elevation
  2
NAME
  10
486556.836
  20
4307733.557
 40
366.53038
  0
SEQEND
  0
POLYLINE
  8
Unknown_Area_Type
  70
1
  66
1
  0
VERTEX
  8
Unknown_Area_Type
  10
486367.488
  20
4307949.613
  0
VERTEX
  8
Unknown_Area_Type
  10
486746.184
  20
4307949.613
  0
VERTEX
  8
Unknown_Area_Type
  10
486746.184
  20
4307517.502
  0
VERTEX
  8
Unknown_Area_Type
  10
486367.488
  20
4307517.502
  0
VERTEX
  8
Unknown_Area_Type
  10
486367.488
  20
4307949.613
  0
SEQEND
  8
Unknown_Area_Type
  0
INSERT
  8
FeatureAttribs
  2
FEATURE
  41
1
  42
1
  43
1
  50
0
  10
488351.064
  20
4307453.488
 66
1
  0
ATTRIB
  8
FeatureAttribs
 70
0
  1
raise elevation
  2
NAME
  10
488351.064
  20
4307453.488
 40
366.53038
  0
SEQEND
  0
POLYLINE
  8
Unknown_Area_Type
  70
1
  66
1
  0
VERTEX
  8
Unknown_Area_Type
  10
488213.034
  20
4307572.545
  0
VERTEX
  8
Unknown_Area_Type
  10
488489.093
  20
4307572.545
  0
VERTEX
  8
Unknown_Area_Type
  10
488489.093
  20
4307334.431
  0
VERTEX
  8
Unknown_Area_Type
  10
488213.034
  20
4307334.431
  0
VERTEX
  8
Unknown_Area_Type
  10
488213.034
  20
4307572.545
  0
SEQEND
  8
Unknown_Area_Type
  0
INSERT
  8
FeatureAttribs
  2
FEATURE
  41
1
  42
1
  43
1
  50
0
  10
524683.694
  20
4306940.741
 66
1
  0
ATTRIB
  8
FeatureAttribs
 70
0
  1
raise elevation
  2
NAME
  10
524683.694
  20
4306940.741
 40
366.53038
  0
SEQEND
  0
POLYLINE
  8
Unknown_Area_Type
  70
1
  66
1
  0
VERTEX
  8
Unknown_Area_Type
  10
524462.559
  20
4307031.477
  0
VERTEX
  8
Unknown_Area_Type
  10
524904.829
  20
4307031.477
  0
VERTEX
  8
Unknown_Area_Type
  10
524904.829
  20
4306850.004
  0
VERTEX
  8
Unknown_Area_Type
  10
524462.559
  20
4306850.004
  0
VERTEX
  8
Unknown_Area_Type
  10
524462.559
  20
4307031.477
  0
SEQEND
  8
Unknown_Area_Type
  0
INSERT
  8
FeatureAttribs
  2
FEATURE
  41
1
  42
1
  43
1
  50
0
  10
504637.509
  20
4295051.101
 66
1
  0
ATTRIB
  8
FeatureAttribs
 70
0
  1
bridge
  2
NAME
  10
504637.509
  20
4295051.101
 40
366.53038
  0
SEQEND
  0
POLYLINE
  8
Unknown_Area_Type
  70
1
  66
1
  0
VERTEX
  8
Unknown_Area_Type
  10
504554.361
  20
4295127.979
  0
VERTEX
  8
Unknown_Area_Type
  10
504720.656
  20
4295127.979
  0
VERTEX
  8
Unknown_Area_Type
  10
504720.656
  20
4294974.222
  0
VERTEX
  8
Unknown_Area_Type
  10
504554.361
  20
4294974.222
  0
VERTEX
  8
Unknown_Area_Type
  10
504554.361
  20
4295127.979
  0
SEQEND
  8
Unknown_Area_Type
  0
INSERT
  8
FeatureAttribs
  2
FEATURE
  41
1
  42
1
  43
1
  50
0
  10
530867.548
  20
4290579.434
 66
1
  0
ATTRIB
  8
FeatureAttribs
 70
0
  1
raise elevation
  2
NAME
  10
530867.548
  20
4290579.434
 40
366.53038
  0
SEQEND
  0
POLYLINE
  8
Unknown_Area_Type
  70
1
  66
1
  0
VERTEX
  8
Unknown_Area_Type
  10
531013.780
  20
4290441.441
  0
VERTEX
  8
Unknown_Area_Type
  10
530721.316
  20
4290441.441
  0
VERTEX
  8
Unknown_Area_Type
  10
530721.316
  20
4290717.427
  0
VERTEX
  8
Unknown_Area_Type
  10
531013.780
  20
4290717.427
  0
VERTEX
  8
Unknown_Area_Type
  10
531013.780
  20
4290441.441
  0
SEQEND
  8
Unknown_Area_Type
  0
INSERT
  8
FeatureAttribs
  2
FEATURE
  41
1
  42
1
  43
1
  50
0
  10
531992.692
  20
4286903.539
 66
1
  0
ATTRIB
  8
FeatureAttribs
 70
0
  1
raise elevation
  2
NAME
  10
531992.692
  20
4286903.539
 40
366.53038
  0
SEQEND
  0
POLYLINE
  8
Unknown_Area_Type
  70
1
  66
1
  0
VERTEX
  8
Unknown_Area_Type
  10
531852.815
  20
4286980.971
  0
VERTEX
  8
Unknown_Area_Type
  10
532132.568
  20
4286980.971
  0
VERTEX
  8
Unknown_Area_Type
  10
532132.568
  20
4286826.107
  0
VERTEX
  8
Unknown_Area_Type
  10
531852.815
  20
4286826.107
  0
VERTEX
  8
Unknown_Area_Type
  10
531852.815
  20
4286980.971
  0
SEQEND
  8
Unknown_Area_Type
  0
INSERT
  8
FeatureAttribs
  2
FEATURE
  41
1
  42
1
  43
1
  50
0
  10
516969.684
  20
4287615.307
 66
1
  0
ATTRIB
  8
FeatureAttribs
 70
0
  1
raise elevation
  2
NAME
  10
516969.684
  20
4287615.307
 40
366.53038
  0
SEQEND
  0
POLYLINE
  8
Unknown_Area_Type
  70
1
  66
1
  0
VERTEX
  8
Unknown_Area_Type
  10
516805.611
  20
4287728.855
  0
VERTEX
  8
Unknown_Area_Type
  10
517133.757
  20
4287728.855
  0
VERTEX
  8
Unknown_Area_Type
  10
517133.757
  20
4287501.758
  0
VERTEX
  8
Unknown_Area_Type
  10
516805.611
  20
4287501.758
  0
VERTEX
  8
Unknown_Area_Type
  10
516805.611
  20
4287728.855
  0
SEQEND
  8
Unknown_Area_Type
  0
INSERT
  8
FeatureAttribs
  2
FEATURE
  41
1
  42
1
  43
1
  50
0
  10
519188.226
  20
4287282.285
 66
1
  0
ATTRIB
  8
FeatureAttribs
 70
0
  1
raise elevation
  2
NAME
  10
519188.226
  20
4287282.285
 40
366.53038
  0
SEQEND
  0
POLYLINE
  8
Unknown_Area_Type
  70
1
  66
1
  0
VERTEX
  8
Unknown_Area_Type
  10
519375.821
  20
4287116.231
  0
VERTEX
  8
Unknown_Area_Type
  10
518999.477
  20
4287116.231
  0
VERTEX
  8
Unknown_Area_Type
  10
519000.632
  20
4287448.339
  0
VERTEX
  8
Unknown_Area_Type
  10
519376.975
  20
4287448.339
  0
VERTEX
  8
Unknown_Area_Type
  10
519375.821
  20
4287116.231
  0
SEQEND
  8
Unknown_Area_Type
  0
INSERT
  8
FeatureAttribs
  2
FEATURE
  41
1
  42
1
  43
1
  50
0
  10
456833.667
  20
4286605.599
 66
1
  0
ATTRIB
  8
FeatureAttribs
 70
0
  1
raise elevation
  2
NAME
  10
456833.667
  20
4286605.599
 40
366.53038
  0
SEQEND
  0
POLYLINE
  8
Unknown_Area_Type
  70
1
  66
1
  0
VERTEX
  8
Unknown_Area_Type
  10
456910.556
  20
4286503.733
  0
VERTEX
  8
Unknown_Area_Type
  10
456756.778
  20
4286503.733
  0
VERTEX
  8
Unknown_Area_Type
  10
456756.778
  20
4286707.464
  0
VERTEX
  8
Unknown_Area_Type
  10
456910.556
  20
4286707.464
  0
VERTEX
  8
Unknown_Area_Type
  10
456910.556
  20
4286503.733
  0
SEQEND
  8
Unknown_Area_Type
  0
INSERT
  8
FeatureAttribs
  2
FEATURE
  41
1
  42
1
  43
1
  50
0
  10
455487.641
  20
4285559.716
 66
1
  0
ATTRIB
  8
FeatureAttribs
 70
0
  1
raise elevation
  2
NAME
  10
455487.641
  20
4285559.716
 40
366.53038
  0
SEQEND
  0
POLYLINE
  8
Unknown_Area_Type
  70
1
  66
1
  0
VERTEX
  8
Unknown_Area_Type
  10
455572.183
  20
4285467.928
  0
VERTEX
  8
Unknown_Area_Type
  10
455403.099
  20
4285467.928
  0
VERTEX
  8
Unknown_Area_Type
  10
455403.099
  20
4285651.505
  0
VERTEX
  8
Unknown_Area_Type
  10
455572.183
  20
4285651.505
  0
VERTEX
  8
Unknown_Area_Type
  10
455572.183
  20
4285467.928
  0
SEQEND
  8
Unknown_Area_Type
  0
INSERT
  8
FeatureAttribs
  2
FEATURE
  41
1
  42
1
  43
1
  50
0
  10
528342.357
  20
4284478.778
 66
1
  0
ATTRIB
  8
FeatureAttribs
 70
0
  1
raise elevation
  2
NAME
  10
528342.357
  20
4284478.778
 40
366.53038
  0
SEQEND
  0
POLYLINE
  8
Unknown_Area_Type
  70
1
  66
1
  0
VERTEX
  8
Unknown_Area_Type
  10
528452.538
  20
4284384.337
  0
VERTEX
  8
Unknown_Area_Type
  10
528232.177
  20
4284384.337
  0
VERTEX
  8
Unknown_Area_Type
  10
528232.177
  20
4284573.219
  0
VERTEX
  8
Unknown_Area_Type
  10
528452.538
  20
4284573.219
  0
VERTEX
  8
Unknown_Area_Type
  10
528452.538
  20
4284384.337
  0
SEQEND
  8
Unknown_Area_Type
  0
INSERT
  8
FeatureAttribs
  2
FEATURE
  41
1
  42
1
  43
1
  50
0
  10
518702.627
  20
4283305.516
 66
1
  0
ATTRIB
  8
FeatureAttribs
 70
0
  1
raise elevation
  2
NAME
  10
518702.627
  20
4283305.516
 40
366.53038
  0
SEQEND
  0
POLYLINE
  8
Unknown_Area_Type
  70
1
  66
1
  0
VERTEX
  8
Unknown_Area_Type
  10
518789.898
  20
4283177.737
  0
VERTEX
  8
Unknown_Area_Type
  10
518615.357
  20
4283177.737
  0
VERTEX
  8
Unknown_Area_Type
  10
518615.357
  20
4283433.296
  0
VERTEX
  8
Unknown_Area_Type
  10
518789.898
  20
4283433.296
  0
VERTEX
  8
Unknown_Area_Type
  10
518789.898
  20
4283177.737
  0
SEQEND
  8
Unknown_Area_Type
  0
INSERT
  8
FeatureAttribs
  2
FEATURE
  41
1
  42
1
  43
1
  50
0
  10
517846.268
  20
4283517.091
 66
1
  0
ATTRIB
  8
FeatureAttribs
 70
0
  1
raise elevation
  2
NAME
  10
517846.268
  20
4283517.091
 40
366.53038
  0
SEQEND
  0
POLYLINE
  8
Unknown_Area_Type
  70
1
  66
1
  0
VERTEX
  8
Unknown_Area_Type
  10
517704.725
  20
4283371.938
  0
VERTEX
  8
Unknown_Area_Type
  10
517704.725
  20
4283662.245
  0
VERTEX
  8
Unknown_Area_Type
  10
517987.811
  20
4283662.245
  0
VERTEX
  8
Unknown_Area_Type
  10
517987.811
  20
4283371.938
  0
VERTEX
  8
Unknown_Area_Type
  10
517704.725
  20
4283371.938
  0
SEQEND
  8
Unknown_Area_Type
  0
INSERT
  8
FeatureAttribs
  2
FEATURE
  41
1
  42
1
  43
1
  50
0
  10
460971.554
  20
4282370.162
 66
1
  0
ATTRIB
  8
FeatureAttribs
 70
0
  1
raise elevation
  2
NAME
  10
460971.554
  20
4282370.162
 40
366.53038
  0
SEQEND
  0
POLYLINE
  8
Unknown_Area_Type
  70
1
  66
1
  0
VERTEX
  8
Unknown_Area_Type
  10
461051.928
  20
4282253.753
  0
VERTEX
  8
Unknown_Area_Type
  10
460891.180
  20
4282253.753
  0
VERTEX
  8
Unknown_Area_Type
  10
460891.180
  20
4282486.571
  0
VERTEX
  8
Unknown_Area_Type
  10
461051.928
  20
4282486.571
  0
VERTEX
  8
Unknown_Area_Type
  10
461051.928
  20
4282253.753
  0
SEQEND
  8
Unknown_Area_Type
  0
INSERT
  8
FeatureAttribs
  2
FEATURE
  41
1
  42
1
  43
1
  50
0
  10
476519.437
  20
4331139.708
 66
1
  0
ATTRIB
  8
FeatureAttribs
 70
0
  1
raise elevation
  2
NAME
  10
476519.437
  20
4331139.708
 40
366.53038
  0
SEQEND
  0
POLYLINE
  8
Unknown_Area_Type
  70
1
  66
1
  0
VERTEX
  8
Unknown_Area_Type
  10
476396.172
  20
4331248.886
  0
VERTEX
  8
Unknown_Area_Type
  10
476642.702
  20
4331248.886
  0
VERTEX
  8
Unknown_Area_Type
  10
476642.702
  20
4331030.530
  0
VERTEX
  8
Unknown_Area_Type
  10
476396.172
  20
4331030.530
  0
VERTEX
  8
Unknown_Area_Type
  10
476396.172
  20
4331248.886
  0
SEQEND
  8
Unknown_Area_Type
  0
INSERT
  8
FeatureAttribs
  2
FEATURE
  41
1
  42
1
  43
1
  50
0
  10
482779.631
  20
4332117.891
 66
1
  0
ATTRIB
  8
FeatureAttribs
 70
0
  1
raise elevation
  2
NAME
  10
482779.631
  20
4332117.891
 40
366.53038
  0
SEQEND
  0
POLYLINE
  8
Unknown_Area_Type
  70
1
  66
1
  0
VERTEX
  8
Unknown_Area_Type
  10
482669.694
  20
4332175.558
  0
VERTEX
  8
Unknown_Area_Type
  10
482889.569
  20
4332175.558
  0
VERTEX
  8
Unknown_Area_Type
  10
482889.569
  20
4332060.223
  0
VERTEX
  8
Unknown_Area_Type
  10
482669.694
  20
4332060.223
  0
VERTEX
  8
Unknown_Area_Type
  10
482669.694
  20
4332175.558
  0
SEQEND
  8
Unknown_Area_Type
  0
INSERT
  8
FeatureAttribs
  2
FEATURE
  41
1
  42
1
  43
1
  50
0
  10
483584.774
  20
4331661.458
 66
1
  0
ATTRIB
  8
FeatureAttribs
 70
0
  1
raise elevation
  2
NAME
  10
483584.774
  20
4331661.458
 40
366.53038
  0
SEQEND
  0
POLYLINE
  8
Unknown_Area_Type
  70
1
  66
1
  0
VERTEX
  8
Unknown_Area_Type
  10
483477.457
  20
4331760.343
  0
VERTEX
  8
Unknown_Area_Type
  10
483692.092
  20
4331760.343
  0
VERTEX
  8
Unknown_Area_Type
  10
483692.092
  20
4331562.572
  0
VERTEX
  8
Unknown_Area_Type
  10
483477.457
  20
4331562.572
  0
VERTEX
  8
Unknown_Area_Type
  10
483477.457
  20
4331760.343
  0
SEQEND
  8
Unknown_Area_Type
  0
INSERT
  8
FeatureAttribs
  2
FEATURE
  41
1
  42
1
  43
1
  50
0
  10
428849.040
  20
4281420.783
 66
1
  0
ATTRIB
  8
FeatureAttribs
 70
0
  1
raise elevation
  2
NAME
  10
428849.040
  20
4281420.783
 40
366.53038
  0
SEQEND
  0
POLYLINE
  8
Unknown_Area_Type
  70
1
  66
1
  0
VERTEX
  8
Unknown_Area_Type
  10
428928.334
  20
4281341.635
  0
VERTEX
  8
Unknown_Area_Type
  10
428769.746
  20
4281341.635
  0
VERTEX
  8
Unknown_Area_Type
  10
428769.746
  20
4281499.931
  0
VERTEX
  8
Unknown_Area_Type
  10
428928.334
  20
4281499.931
  0
VERTEX
  8
Unknown_Area_Type
  10
428928.334
  20
4281341.635
  0
SEQEND
  8
Unknown_Area_Type
  0
INSERT
  8
FeatureAttribs
  2
FEATURE
  41
1
  42
1
  43
1
  50
0
  10
423250.919
  20
4282650.972
 66
1
  0
ATTRIB
  8
FeatureAttribs
 70
0
  1
raise elevation
  2
NAME
  10
423250.919
  20
4282650.972
 40
366.53038
  0
SEQEND
  0
POLYLINE
  8
Unknown_Area_Type
  70
1
  66
1
  0
VERTEX
  8
Unknown_Area_Type
  10
423457.834
  20
4282499.765
  0
VERTEX
  8
Unknown_Area_Type
  10
423044.004
  20
4282499.765
  0
VERTEX
  8
Unknown_Area_Type
  10
423044.004
  20
4282802.179
  0
VERTEX
  8
Unknown_Area_Type
  10
423457.834
  20
4282802.179
  0
VERTEX
  8
Unknown_Area_Type
  10
423457.834
  20
4282499.765
  0
SEQEND
  8
Unknown_Area_Type
  0
INSERT
  8
FeatureAttribs
  2
FEATURE
  41
1
  42
1
  43
1
  50
0
  10
411613.929
  20
4282999.045
 66
1
  0
ATTRIB
  8
FeatureAttribs
 70
0
  1
raise elevation
  2
NAME
  10
411613.929
  20
4282999.045
 40
366.53038
  0
SEQEND
  0
POLYLINE
  8
Unknown_Area_Type
  70
1
  66
1
  0
VERTEX
  8
Unknown_Area_Type
  10
411437.528
  20
4283122.505
  0
VERTEX
  8
Unknown_Area_Type
  10
411790.329
  20
4283122.505
  0
VERTEX
  8
Unknown_Area_Type
  10
411790.329
  20
4282875.586
  0
VERTEX
  8
Unknown_Area_Type
  10
411437.528
  20
4282875.586
  0
VERTEX
  8
Unknown_Area_Type
  10
411437.528
  20
4283122.505
  0
SEQEND
  8
Unknown_Area_Type
  0
INSERT
  8
FeatureAttribs
  2
FEATURE
  41
1
  42
1
  43
1
  50
0
  10
402922.146
  20
4279582.521
 66
1
  0
ATTRIB
  8
FeatureAttribs
 70
0
  1
raise elevation
  2
NAME
  10
402922.146
  20
4279582.521
 40
366.53038
  0
SEQEND
  0
POLYLINE
  8
Unknown_Area_Type
  70
1
  66
1
  0
VERTEX
  8
Unknown_Area_Type
  10
403022.921
  20
4279518.409
  0
VERTEX
  8
Unknown_Area_Type
  10
402821.371
  20
4279518.409
  0
VERTEX
  8
Unknown_Area_Type
  10
402821.371
  20
4279646.634
  0
VERTEX
  8
Unknown_Area_Type
  10
403022.921
  20
4279646.634
  0
VERTEX
  8
Unknown_Area_Type
  10
403022.921
  20
4279518.409
  0
SEQEND
  8
Unknown_Area_Type
  0
INSERT
  8
FeatureAttribs
  2
FEATURE
  41
1
  42
1
  43
1
  50
0
  10
444847.466
  20
4278298.410
 66
1
  0
ATTRIB
  8
FeatureAttribs
 70
0
  1
raise elevation
  2
NAME
  10
444847.466
  20
4278298.410
 40
366.53038
  0
SEQEND
  0
POLYLINE
  8
Unknown_Area_Type
  70
1
  66
1
  0
VERTEX
  8
Unknown_Area_Type
  10
444721.524
  20
4278464.569
  0
VERTEX
  8
Unknown_Area_Type
  10
444973.408
  20
4278464.569
  0
VERTEX
  8
Unknown_Area_Type
  10
444973.408
  20
4278132.252
  0
VERTEX
  8
Unknown_Area_Type
  10
444721.524
  20
4278132.252
  0
VERTEX
  8
Unknown_Area_Type
  10
444721.524
  20
4278464.569
  0
SEQEND
  8
Unknown_Area_Type
  0
INSERT
  8
FeatureAttribs
  2
FEATURE
  41
1
  42
1
  43
1
  50
0
  10
443614.508
  20
4277574.510
 66
1
  0
ATTRIB
  8
FeatureAttribs
 70
0
  1
raise elevation
  2
NAME
  10
443614.508
  20
4277574.510
 40
366.53038
  0
SEQEND
  0
POLYLINE
  8
Unknown_Area_Type
  70
1
  66
1
  0
VERTEX
  8
Unknown_Area_Type
  10
443445.174
  20
4277677.169
  0
VERTEX
  8
Unknown_Area_Type
  10
443783.841
  20
4277677.169
  0
VERTEX
  8
Unknown_Area_Type
  10
443783.841
  20
4277471.852
  0
VERTEX
  8
Unknown_Area_Type
  10
443445.174
  20
4277471.852
  0
VERTEX
  8
Unknown_Area_Type
  10
443445.174
  20
4277677.169
  0
SEQEND
  8
Unknown_Area_Type
  0
INSERT
  8
FeatureAttribs
  2
FEATURE
  41
1
  42
1
  43
1
  50
0
  10
442998.558
  20
4278811.702
 66
1
  0
ATTRIB
  8
FeatureAttribs
 70
0
  1
raise elevation
  2
NAME
  10
442998.558
  20
4278811.702
 40
366.53038
  0
SEQEND
  0
POLYLINE
  8
Unknown_Area_Type
  70
1
  66
1
  0
VERTEX
  8
Unknown_Area_Type
  10
442882.141
  20
4278917.535
  0
VERTEX
  8
Unknown_Area_Type
  10
443114.974
  20
4278917.535
  0
VERTEX
  8
Unknown_Area_Type
  10
443114.974
  20
4278705.869
  0
VERTEX
  8
Unknown_Area_Type
  10
442882.141
  20
4278705.869
  0
VERTEX
  8
Unknown_Area_Type
  10
442882.141
  20
4278917.535
  0
SEQEND
  8
Unknown_Area_Type
  0
INSERT
  8
FeatureAttribs
  2
FEATURE
  41
1
  42
1
  43
1
  50
0
  10
437358.699
  20
4277484.552
 66
1
  0
ATTRIB
  8
FeatureAttribs
 70
0
  1
raise elevation
  2
NAME
  10
437358.699
  20
4277484.552
 40
366.53038
  0
SEQEND
  0
POLYLINE
  8
Unknown_Area_Type
  70
1
  66
1
  0
VERTEX
  8
Unknown_Area_Type
  10
437172.433
  20
4277603.085
  0
VERTEX
  8
Unknown_Area_Type
  10
437544.966
  20
4277603.085
  0
VERTEX
  8
Unknown_Area_Type
  10
437544.966
  20
4277366.019
  0
VERTEX
  8
Unknown_Area_Type
  10
437172.433
  20
4277366.019
  0
VERTEX
  8
Unknown_Area_Type
  10
437172.433
  20
4277603.085
  0
SEQEND
  8
Unknown_Area_Type
  0
INSERT
  8
FeatureAttribs
  2
FEATURE
  41
1
  42
1
  43
1
  50
0
  10
407981.757
  20
4278972.720
 66
1
  0
ATTRIB
  8
FeatureAttribs
 70
0
  1
raise elevation
  2
NAME
  10
407981.757
  20
4278972.720
 40
366.53038
  0
SEQEND
  0
POLYLINE
  8
Unknown_Area_Type
  70
1
  66
1
  0
VERTEX
  8
Unknown_Area_Type
  10
408129.728
  20
4278824.539
  0
VERTEX
  8
Unknown_Area_Type
  10
407833.785
  20
4278824.539
  0
VERTEX
  8
Unknown_Area_Type
  10
407833.785
  20
4279120.901
  0
VERTEX
  8
Unknown_Area_Type
  10
408129.728
  20
4279120.901
  0
VERTEX
  8
Unknown_Area_Type
  10
408129.728
  20
4278824.539
  0
SEQEND
  8
Unknown_Area_Type
  0
INSERT
  8
FeatureAttribs
  2
FEATURE
  41
1
  42
1
  43
1
  50
0
  10
404513.603
  20
4278239.339
 66
1
  0
ATTRIB
  8
FeatureAttribs
 70
0
  1
raise elevation
  2
NAME
  10
404513.603
  20
4278239.339
 40
366.53038
  0
SEQEND
  0
POLYLINE
  8
Unknown_Area_Type
  70
1
  66
1
  0
VERTEX
  8
Unknown_Area_Type
  10
404622.615
  20
4278134.335
  0
VERTEX
  8
Unknown_Area_Type
  10
404404.590
  20
4278134.335
  0
VERTEX
  8
Unknown_Area_Type
  10
404404.590
  20
4278344.342
  0
VERTEX
  8
Unknown_Area_Type
  10
404622.615
  20
4278344.342
  0
VERTEX
  8
Unknown_Area_Type
  10
404622.615
  20
4278134.335
  0
SEQEND
  8
Unknown_Area_Type
  0
INSERT
  8
FeatureAttribs
  2
FEATURE
  41
1
  42
1
  43
1
  50
0
  10
390771.924
  20
4276328.852
 66
1
  0
ATTRIB
  8
FeatureAttribs
 70
0
  1
raise elevation
  2
NAME
  10
390771.924
  20
4276328.852
 40
366.53038
  0
SEQEND
  0
POLYLINE
  8
Unknown_Area_Type
  70
1
  66
1
  0
VERTEX
  8
Unknown_Area_Type
  10
390641.749
  20
4276527.819
  0
VERTEX
  8
Unknown_Area_Type
  10
390902.099
  20
4276527.819
  0
VERTEX
  8
Unknown_Area_Type
  10
390902.099
  20
4276129.885
  0
VERTEX
  8
Unknown_Area_Type
  10
390641.749
  20
4276129.885
  0
VERTEX
  8
Unknown_Area_Type
  10
390641.749
  20
4276527.819
  0
SEQEND
  8
Unknown_Area_Type
  0
INSERT
  8
FeatureAttribs
  2
FEATURE
  41
1
  42
1
  43
1
  50
0
  10
408176.920
  20
4276545.275
 66
1
  0
ATTRIB
  8
FeatureAttribs
 70
0
  1
raise elevation
  2
NAME
  10
408176.920
  20
4276545.275
 40
366.53038
  0
SEQEND
  0
POLYLINE
  8
Unknown_Area_Type
  70
1
  66
1
  0
VERTEX
  8
Unknown_Area_Type
  10
408295.795
  20
4276449.110
  0
VERTEX
  8
Unknown_Area_Type
  10
408058.044
  20
4276449.110
  0
VERTEX
  8
Unknown_Area_Type
  10
408058.044
  20
4276641.440
  0
VERTEX
  8
Unknown_Area_Type
  10
408295.795
  20
4276641.440
  0
VERTEX
  8
Unknown_Area_Type
  10
408295.795
  20
4276449.110
  0
SEQEND
  8
Unknown_Area_Type
  0
INSERT
  8
FeatureAttribs
  2
FEATURE
  41
1
  42
1
  43
1
  50
0
  10
406979.428
  20
4276594.207
 66
1
  0
ATTRIB
  8
FeatureAttribs
 70
0
  1
raise elevation
  2
NAME
  10
406979.428
  20
4276594.207
 40
366.53038
  0
SEQEND
  0
POLYLINE
  8
Unknown_Area_Type
  70
1
  66
1
  0
VERTEX
  8
Unknown_Area_Type
  10
407073.657
  20
4276457.147
  0
VERTEX
  8
Unknown_Area_Type
  10
406885.199
  20
4276457.147
  0
VERTEX
  8
Unknown_Area_Type
  10
406885.199
  20
4276731.268
  0
VERTEX
  8
Unknown_Area_Type
  10
407073.657
  20
4276731.268
  0
VERTEX
  8
Unknown_Area_Type
  10
407073.657
  20
4276457.147
  0
SEQEND
  8
Unknown_Area_Type
  0
INSERT
  8
FeatureAttribs
  2
FEATURE
  41
1
  42
1
  43
1
  50
0
  10
413411.791
  20
4276471.462
 66
1
  0
ATTRIB
  8
FeatureAttribs
 70
0
  1
raise elevation
  2
NAME
  10
413411.791
  20
4276471.462
 40
366.53038
  0
SEQEND
  0
POLYLINE
  8
Unknown_Area_Type
  70
1
  66
1
  0
VERTEX
  8
Unknown_Area_Type
  10
413520.270
  20
4276330.969
  0
VERTEX
  8
Unknown_Area_Type
  10
413303.312
  20
4276330.969
  0
VERTEX
  8
Unknown_Area_Type
  10
413303.312
  20
4276611.956
  0
VERTEX
  8
Unknown_Area_Type
  10
413520.270
  20
4276611.956
  0
VERTEX
  8
Unknown_Area_Type
  10
413520.270
  20
4276330.969
  0
SEQEND
  8
Unknown_Area_Type
  0
INSERT
  8
FeatureAttribs
  2
FEATURE
  41
1
  42
1
  43
1
  50
0
  10
431313.001
  20
4273979.875
 66
1
  0
ATTRIB
  8
FeatureAttribs
 70
0
  1
raise elevation
  2
NAME
  10
431313.001
  20
4273979.875
 40
366.53038
  0
SEQEND
  0
POLYLINE
  8
Unknown_Area_Type
  70
1
  66
1
  0
VERTEX
  8
Unknown_Area_Type
  10
431425.558
  20
4273903.774
  0
VERTEX
  8
Unknown_Area_Type
  10
431200.445
  20
4273903.774
  0
VERTEX
  8
Unknown_Area_Type
  10
431200.445
  20
4274055.975
  0
VERTEX
  8
Unknown_Area_Type
  10
431425.558
  20
4274055.975
  0
VERTEX
  8
Unknown_Area_Type
  10
431425.558
  20
4273903.774
  0
SEQEND
  8
Unknown_Area_Type
  0
INSERT
  8
FeatureAttribs
  2
FEATURE
  41
1
  42
1
  43
1
  50
0
  10
419844.387
  20
4275196.748
 66
1
  0
ATTRIB
  8
FeatureAttribs
 70
0
  1
raise elevation
  2
NAME
  10
419844.387
  20
4275196.748
 40
366.53038
  0
SEQEND
  0
POLYLINE
  8
Unknown_Area_Type
  70
1
  66
1
  0
VERTEX
  8
Unknown_Area_Type
  10
419965.672
  20
4275070.904
  0
VERTEX
  8
Unknown_Area_Type
  10
419723.102
  20
4275070.904
  0
VERTEX
  8
Unknown_Area_Type
  10
419723.102
  20
4275322.591
  0
VERTEX
  8
Unknown_Area_Type
  10
419965.672
  20
4275322.591
  0
VERTEX
  8
Unknown_Area_Type
  10
419965.672
  20
4275070.904
  0
SEQEND
  8
Unknown_Area_Type
  0
INSERT
  8
FeatureAttribs
  2
FEATURE
  41
1
  42
1
  43
1
  50
0
  10
414068.729
  20
4274215.055
 66
1
  0
ATTRIB
  8
FeatureAttribs
 70
0
  1
raise elevation
  2
NAME
  10
414068.729
  20
4274215.055
 40
366.53038
  0
SEQEND
  0
POLYLINE
  8
Unknown_Area_Type
  70
1
  66
1
  0
VERTEX
  8
Unknown_Area_Type
  10
414162.547
  20
4274141.003
  0
VERTEX
  8
Unknown_Area_Type
  10
413974.911
  20
4274141.003
  0
VERTEX
  8
Unknown_Area_Type
  10
413974.911
  20
4274289.108
  0
VERTEX
  8
Unknown_Area_Type
  10
414162.547
  20
4274289.108
  0
VERTEX
  8
Unknown_Area_Type
  10
414162.547
  20
4274141.003
  0
SEQEND
  8
Unknown_Area_Type
  0
INSERT
  8
FeatureAttribs
  2
FEATURE
  41
1
  42
1
  43
1
  50
0
  10
413424.807
  20
4274373.461
 66
1
  0
ATTRIB
  8
FeatureAttribs
 70
0
  1
raise elevation
  2
NAME
  10
413424.807
  20
4274373.461
 40
366.53038
  0
SEQEND
  0
POLYLINE
  8
Unknown_Area_Type
  70
1
  66
1
  0
VERTEX
  8
Unknown_Area_Type
  10
413506.654
  20
4274286.324
  0
VERTEX
  8
Unknown_Area_Type
  10
413342.960
  20
4274286.324
  0
VERTEX
  8
Unknown_Area_Type
  10
413342.960
  20
4274460.598
  0
VERTEX
  8
Unknown_Area_Type
  10
413506.654
  20
4274460.598
  0
VERTEX
  8
Unknown_Area_Type
  10
413506.654
  20
4274286.324
  0
SEQEND
  8
Unknown_Area_Type
  0
INSERT
  8
FeatureAttribs
  2
FEATURE
  41
1
  42
1
  43
1
  50
0
  10
409318.158
  20
4274918.094
 66
1
  0
ATTRIB
  8
FeatureAttribs
 70
0
  1
raise elevation
  2
NAME
  10
409318.158
  20
4274918.094
 40
366.53038
  0
SEQEND
  0
POLYLINE
  8
Unknown_Area_Type
  70
1
  66
1
  0
VERTEX
  8
Unknown_Area_Type
  10
409471.616
  20
4274787.919
  0
VERTEX
  8
Unknown_Area_Type
  10
409164.699
  20
4274787.919
  0
VERTEX
  8
Unknown_Area_Type
  10
409164.699
  20
4275048.269
  0
VERTEX
  8
Unknown_Area_Type
  10
409471.616
  20
4275048.269
  0
VERTEX
  8
Unknown_Area_Type
  10
409471.616
  20
4274787.919
  0
SEQEND
  8
Unknown_Area_Type
  0
INSERT
  8
FeatureAttribs
  2
FEATURE
  41
1
  42
1
  43
1
  50
0
  10
406440.973
  20
4274409.409
 66
1
  0
ATTRIB
  8
FeatureAttribs
 70
0
  1
raise elevation
  2
NAME
  10
406440.973
  20
4274409.409
 40
366.53038
  0
SEQEND
  0
POLYLINE
  8
Unknown_Area_Type
  70
1
  66
1
  0
VERTEX
  8
Unknown_Area_Type
  10
406526.735
  20
4274346.208
  0
VERTEX
  8
Unknown_Area_Type
  10
406355.210
  20
4274346.208
  0
VERTEX
  8
Unknown_Area_Type
  10
406355.210
  20
4274472.610
  0
VERTEX
  8
Unknown_Area_Type
  10
406526.735
  20
4274472.610
  0
VERTEX
  8
Unknown_Area_Type
  10
406526.735
  20
4274346.208
  0
SEQEND
  8
Unknown_Area_Type
  0
INSERT
  8
FeatureAttribs
  2
FEATURE
  41
1
  42
1
  43
1
  50
0
  10
397573.291
  20
4274241.296
 66
1
  0
ATTRIB
  8
FeatureAttribs
 70
0
  1
raise elevation
  2
NAME
  10
397573.291
  20
4274241.296
 40
366.53038
  0
SEQEND
  0
POLYLINE
  8
Unknown_Area_Type
  70
1
  66
1
  0
VERTEX
  8
Unknown_Area_Type
  10
397654.553
  20
4274168.906
  0
VERTEX
  8
Unknown_Area_Type
  10
397492.030
  20
4274168.906
  0
VERTEX
  8
Unknown_Area_Type
  10
397492.030
  20
4274313.686
  0
VERTEX
  8
Unknown_Area_Type
  10
397654.553
  20
4274313.686
  0
VERTEX
  8
Unknown_Area_Type
  10
397654.553
  20
4274168.906
  0
SEQEND
  8
Unknown_Area_Type
  0
INSERT
  8
FeatureAttribs
  2
FEATURE
  41
1
  42
1
  43
1
  50
0
  10
399864.638
  20
4273309.389
 66
1
  0
ATTRIB
  8
FeatureAttribs
 70
0
  1
raise elevation
  2
NAME
  10
399864.638
  20
4273309.389
 40
366.53038
  0
SEQEND
  0
POLYLINE
  8
Unknown_Area_Type
  70
1
  66
1
  0
VERTEX
  8
Unknown_Area_Type
  10
399957.687
  20
4273200.367
  0
VERTEX
  8
Unknown_Area_Type
  10
399771.589
  20
4273200.367
  0
VERTEX
  8
Unknown_Area_Type
  10
399771.589
  20
4273418.410
  0
VERTEX
  8
Unknown_Area_Type
  10
399957.687
  20
4273418.410
  0
VERTEX
  8
Unknown_Area_Type
  10
399957.687
  20
4273200.367
  0
SEQEND
  8
Unknown_Area_Type
  0
INSERT
  8
FeatureAttribs
  2
FEATURE
  41
1
  42
1
  43
1
  50
0
  10
401789.187
  20
4272648.255
 66
1
  0
ATTRIB
  8
FeatureAttribs
 70
0
  1
raise elevation
  2
NAME
  10
401789.187
  20
4272648.255
 40
366.53038
  0
SEQEND
  0
POLYLINE
  8
Unknown_Area_Type
  70
1
  66
1
  0
VERTEX
  8
Unknown_Area_Type
  10
401885.010
  20
4272461.677
  0
VERTEX
  8
Unknown_Area_Type
  10
401693.364
  20
4272461.677
  0
VERTEX
  8
Unknown_Area_Type
  10
401693.364
  20
4272834.833
  0
VERTEX
  8
Unknown_Area_Type
  10
401885.010
  20
4272834.833
  0
VERTEX
  8
Unknown_Area_Type
  10
401885.010
  20
4272461.677
  0
SEQEND
  8
Unknown_Area_Type
  0
INSERT
  8
FeatureAttribs
  2
FEATURE
  41
1
  42
1
  43
1
  50
0
  10
403073.779
  20
4271666.850
 66
1
  0
ATTRIB
  8
FeatureAttribs
 70
0
  1
raise elevation
  2
NAME
  10
403073.779
  20
4271666.850
 40
366.53038
  0
SEQEND
  0
POLYLINE
  8
Unknown_Area_Type
  70
1
  66
1
  0
VERTEX
  8
Unknown_Area_Type
  10
403333.594
  20
4271856.198
  0
VERTEX
  8
Unknown_Area_Type
  10
403333.594
  20
4271477.502
  0
VERTEX
  8
Unknown_Area_Type
  10
402813.965
  20
4271477.502
  0
VERTEX
  8
Unknown_Area_Type
  10
402813.965
  20
4271856.198
  0
VERTEX
  8
Unknown_Area_Type
  10
403333.594
  20
4271856.198
  0
SEQEND
  8
Unknown_Area_Type
  0
INSERT
  8
FeatureAttribs
  2
FEATURE
  41
1
  42
1
  43
1
  50
0
  10
438802.319
  20
4272150.004
 66
1
  0
ATTRIB
  8
FeatureAttribs
 70
0
  1
raise elevation
  2
NAME
  10
438802.319
  20
4272150.004
 40
366.53038
  0
SEQEND
  0
POLYLINE
  8
Unknown_Area_Type
  70
1
  66
1
  0
VERTEX
  8
Unknown_Area_Type
  10
438573.953
  20
4272402.230
  0
VERTEX
  8
Unknown_Area_Type
  10
439030.686
  20
4272402.230
  0
VERTEX
  8
Unknown_Area_Type
  10
439030.686
  20
4271897.778
  0
VERTEX
  8
Unknown_Area_Type
  10
438573.953
  20
4271897.778
  0
VERTEX
  8
Unknown_Area_Type
  10
438573.953
  20
4272402.230
  0
SEQEND
  8
Unknown_Area_Type
  0
INSERT
  8
FeatureAttribs
  2
FEATURE
  41
1
  42
1
  43
1
  50
0
  10
438314.228
  20
4272078.427
 66
1
  0
ATTRIB
  8
FeatureAttribs
 70
0
  1
raise elevation
  2
NAME
  10
438314.228
  20
4272078.427
 40
366.53038
  0
SEQEND
  0
POLYLINE
  8
Unknown_Area_Type
  70
1
  66
1
  0
VERTEX
  8
Unknown_Area_Type
  10
438227.653
  20
4272166.365
  0
VERTEX
  8
Unknown_Area_Type
  10
438400.803
  20
4272166.365
  0
VERTEX
  8
Unknown_Area_Type
  10
438400.803
  20
4271990.488
  0
VERTEX
  8
Unknown_Area_Type
  10
438227.653
  20
4271990.488
  0
VERTEX
  8
Unknown_Area_Type
  10
438227.653
  20
4272166.365
  0
SEQEND
  8
Unknown_Area_Type
  0
INSERT
  8
FeatureAttribs
  2
FEATURE
  41
1
  42
1
  43
1
  50
0
  10
438121.310
  20
4272968.715
 66
1
  0
ATTRIB
  8
FeatureAttribs
 70
0
  1
raise elevation
  2
NAME
  10
438121.310
  20
4272968.715
 40
366.53038
  0
SEQEND
  0
POLYLINE
  8
Unknown_Area_Type
  70
1
  66
1
  0
VERTEX
  8
Unknown_Area_Type
  10
438012.239
  20
4273053.927
  0
VERTEX
  8
Unknown_Area_Type
  10
438230.380
  20
4273053.927
  0
VERTEX
  8
Unknown_Area_Type
  10
438230.380
  20
4272883.504
  0
VERTEX
  8
Unknown_Area_Type
  10
438012.239
  20
4272883.504
  0
VERTEX
  8
Unknown_Area_Type
  10
438012.239
  20
4273053.927
  0
SEQEND
  8
Unknown_Area_Type
  0
INSERT
  8
FeatureAttribs
  2
FEATURE
  41
1
  42
1
  43
1
  50
0
  10
441312.035
  20
4271373.779
 66
1
  0
ATTRIB
  8
FeatureAttribs
 70
0
  1
raise elevation
  2
NAME
  10
441312.035
  20
4271373.779
 40
366.53038
  0
SEQEND
  0
POLYLINE
  8
Unknown_Area_Type
  70
1
  66
1
  0
VERTEX
  8
Unknown_Area_Type
  10
441161.752
  20
4271533.587
  0
VERTEX
  8
Unknown_Area_Type
  10
441462.319
  20
4271533.587
  0
VERTEX
  8
Unknown_Area_Type
  10
441462.319
  20
4271213.971
  0
VERTEX
  8
Unknown_Area_Type
  10
441161.752
  20
4271213.971
  0
VERTEX
  8
Unknown_Area_Type
  10
441161.752
  20
4271533.587
  0
SEQEND
  8
Unknown_Area_Type
  0
INSERT
  8
FeatureAttribs
  2
FEATURE
  41
1
  42
1
  43
1
  50
0
  10
427025.973
  20
4270836.214
 66
1
  0
ATTRIB
  8
FeatureAttribs
 70
0
  1
raise elevation
  2
NAME
  10
427025.973
  20
4270836.214
 40
366.53038
  0
SEQEND
  0
POLYLINE
  8
Unknown_Area_Type
  70
1
  66
1
  0
VERTEX
  8
Unknown_Area_Type
  10
426958.570
  20
4270928.831
  0
VERTEX
  8
Unknown_Area_Type
  10
427093.377
  20
4270928.831
  0
VERTEX
  8
Unknown_Area_Type
  10
427093.377
  20
4270743.597
  0
VERTEX
  8
Unknown_Area_Type
  10
426958.570
  20
4270743.597
  0
VERTEX
  8
Unknown_Area_Type
  10
426958.570
  20
4270928.831
  0
SEQEND
  8
Unknown_Area_Type
  0
INSERT
  8
FeatureAttribs
  2
FEATURE
  41
1
  42
1
  43
1
  50
0
  10
406978.725
  20
4271930.078
 66
1
  0
ATTRIB
  8
FeatureAttribs
 70
0
  1
raise elevation
  2
NAME
  10
406978.725
  20
4271930.078
 40
366.53038
  0
SEQEND
  0
POLYLINE
  8
Unknown_Area_Type
  70
1
  66
1
  0
VERTEX
  8
Unknown_Area_Type
  10
406879.644
  20
4272037.476
  0
VERTEX
  8
Unknown_Area_Type
  10
407077.807
  20
4272037.476
  0
VERTEX
  8
Unknown_Area_Type
  10
407077.807
  20
4271822.680
  0
VERTEX
  8
Unknown_Area_Type
  10
406879.644
  20
4271822.680
  0
VERTEX
  8
Unknown_Area_Type
  10
406879.644
  20
4272037.476
  0
SEQEND
  8
Unknown_Area_Type
  0
INSERT
  8
FeatureAttribs
  2
FEATURE
  41
1
  42
1
  43
1
  50
0
  10
405334.336
  20
4271057.275
 66
1
  0
ATTRIB
  8
FeatureAttribs
 70
0
  1
raise elevation
  2
NAME
  10
405334.336
  20
4271057.275
 40
366.53038
  0
SEQEND
  0
POLYLINE
  8
Unknown_Area_Type
  70
1
  66
1
  0
VERTEX
  8
Unknown_Area_Type
  10
405174.185
  20
4271211.978
  0
VERTEX
  8
Unknown_Area_Type
  10
405494.487
  20
4271211.978
  0
VERTEX
  8
Unknown_Area_Type
  10
405494.487
  20
4270902.571
  0
VERTEX
  8
Unknown_Area_Type
  10
405174.185
  20
4270902.571
  0
VERTEX
  8
Unknown_Area_Type
  10
405174.185
  20
4271211.978
  0
SEQEND
  8
Unknown_Area_Type
  0
INSERT
  8
FeatureAttribs
  2
FEATURE
  41
1
  42
1
  43
1
  50
0
  10
433907.671
  20
4270130.766
 66
1
  0
ATTRIB
  8
FeatureAttribs
 70
0
  1
raise elevation
  2
NAME
  10
433907.671
  20
4270130.766
 40
366.53038
  0
SEQEND
  0
POLYLINE
  8
Unknown_Area_Type
  70
1
  66
1
  0
VERTEX
  8
Unknown_Area_Type
  10
433804.959
  20
4270206.966
  0
VERTEX
  8
Unknown_Area_Type
  10
434010.382
  20
4270206.966
  0
VERTEX
  8
Unknown_Area_Type
  10
434010.382
  20
4270054.566
  0
VERTEX
  8
Unknown_Area_Type
  10
433804.959
  20
4270054.566
  0
VERTEX
  8
Unknown_Area_Type
  10
433804.959
  20
4270206.966
  0
SEQEND
  8
Unknown_Area_Type
  0
INSERT
  8
FeatureAttribs
  2
FEATURE
  41
1
  42
1
  43
1
  50
0
  10
438294.710
  20
4270149.438
 66
1
  0
ATTRIB
  8
FeatureAttribs
 70
0
  1
raise elevation
  2
NAME
  10
438294.710
  20
4270149.438
 40
366.53038
  0
SEQEND
  0
POLYLINE
  8
Unknown_Area_Type
  70
1
  66
1
  0
VERTEX
  8
Unknown_Area_Type
  10
438490.058
  20
4270022.879
  0
VERTEX
  8
Unknown_Area_Type
  10
438099.363
  20
4270022.879
  0
VERTEX
  8
Unknown_Area_Type
  10
438099.363
  20
4270275.997
  0
VERTEX
  8
Unknown_Area_Type
  10
438490.058
  20
4270275.997
  0
VERTEX
  8
Unknown_Area_Type
  10
438490.058
  20
4270022.879
  0
SEQEND
  8
Unknown_Area_Type
  0
INSERT
  8
FeatureAttribs
  2
FEATURE
  41
1
  42
1
  43
1
  50
0
  10
444554.473
  20
4267736.116
 66
1
  0
ATTRIB
  8
FeatureAttribs
 70
0
  1
raise elevation
  2
NAME
  10
444554.473
  20
4267736.116
 40
366.53038
  0
SEQEND
  0
POLYLINE
  8
Unknown_Area_Type
  70
1
  66
1
  0
VERTEX
  8
Unknown_Area_Type
  10
444340.767
  20
4267522.410
  0
VERTEX
  8
Unknown_Area_Type
  10
444340.767
  20
4267949.821
  0
VERTEX
  8
Unknown_Area_Type
  10
444768.178
  20
4267949.821
  0
VERTEX
  8
Unknown_Area_Type
  10
444768.178
  20
4267522.410
  0
VERTEX
  8
Unknown_Area_Type
  10
444340.767
  20
4267522.410
  0
SEQEND
  8
Unknown_Area_Type
  0
INSERT
  8
FeatureAttribs
  2
FEATURE
  41
1
  42
1
  43
1
  50
0
  10
405076.331
  20
4267459.059
 66
1
  0
ATTRIB
  8
FeatureAttribs
 70
0
  1
raise elevation
  2
NAME
  10
405076.331
  20
4267459.059
 40
366.53038
  0
SEQEND
  0
POLYLINE
  8
Unknown_Area_Type
  70
1
  66
1
  0
VERTEX
  8
Unknown_Area_Type
  10
404934.846
  20
4267588.922
  0
VERTEX
  8
Unknown_Area_Type
  10
405217.815
  20
4267588.922
  0
VERTEX
  8
Unknown_Area_Type
  10
405217.815
  20
4267329.196
  0
VERTEX
  8
Unknown_Area_Type
  10
404934.846
  20
4267329.196
  0
VERTEX
  8
Unknown_Area_Type
  10
404934.846
  20
4267588.922
  0
SEQEND
  8
Unknown_Area_Type
  0
INSERT
  8
FeatureAttribs
  2
FEATURE
  41
1
  42
1
  43
1
  50
0
  10
405425.495
  20
4267560.119
 66
1
  0
ATTRIB
  8
FeatureAttribs
 70
0
  1
raise elevation
  2
NAME
  10
405425.495
  20
4267560.119
 40
366.53038
  0
SEQEND
  0
POLYLINE
  8
Unknown_Area_Type
  70
1
  66
1
  0
VERTEX
  8
Unknown_Area_Type
  10
405347.173
  20
4267736.470
  0
VERTEX
  8
Unknown_Area_Type
  10
405503.817
  20
4267736.470
  0
VERTEX
  8
Unknown_Area_Type
  10
405503.817
  20
4267383.769
  0
VERTEX
  8
Unknown_Area_Type
  10
405347.173
  20
4267383.769
  0
VERTEX
  8
Unknown_Area_Type
  10
405347.173
  20
4267736.470
  0
SEQEND
  8
Unknown_Area_Type
  0
INSERT
  8
FeatureAttribs
  2
FEATURE
  41
1
  42
1
  43
1
  50
0
  10
418691.219
  20
4265977.337
 66
1
  0
ATTRIB
  8
FeatureAttribs
 70
0
  1
raise elevation
  2
NAME
  10
418691.219
  20
4265977.337
 40
366.53038
  0
SEQEND
  0
POLYLINE
  8
Unknown_Area_Type
  70
1
  66
1
  0
VERTEX
  8
Unknown_Area_Type
  10
418565.277
  20
4265812.237
  0
VERTEX
  8
Unknown_Area_Type
  10
418565.277
  20
4266142.437
  0
VERTEX
  8
Unknown_Area_Type
  10
418817.160
  20
4266142.437
  0
VERTEX
  8
Unknown_Area_Type
  10
418817.160
  20
4265812.237
  0
VERTEX
  8
Unknown_Area_Type
  10
418565.277
  20
4265812.237
  0
SEQEND
  8
Unknown_Area_Type
  0
INSERT
  8
FeatureAttribs
  2
FEATURE
  41
1
  42
1
  43
1
  50
0
  10
439556.241
  20
4264106.671
 66
1
  0
ATTRIB
  8
FeatureAttribs
 70
0
  1
raise elevation
  2
NAME
  10
439556.241
  20
4264106.671
 40
366.53038
  0
SEQEND
  0
POLYLINE
  8
Unknown_Area_Type
  70
1
  66
1
  0
VERTEX
  8
Unknown_Area_Type
  10
439632.049
  20
4264184.533
  0
VERTEX
  8
Unknown_Area_Type
  10
439632.049
  20
4264028.809
  0
VERTEX
  8
Unknown_Area_Type
  10
439480.434
  20
4264028.809
  0
VERTEX
  8
Unknown_Area_Type
  10
439480.434
  20
4264184.533
  0
VERTEX
  8
Unknown_Area_Type
  10
439632.049
  20
4264184.533
  0
SEQEND
  8
Unknown_Area_Type
  0
INSERT
  8
FeatureAttribs
  2
FEATURE
  41
1
  42
1
  43
1
  50
0
  10
430307.221
  20
4262819.488
 66
1
  0
ATTRIB
  8
FeatureAttribs
 70
0
  1
raise elevation
  2
NAME
  10
430307.221
  20
4262819.488
 40
366.53038
  0
SEQEND
  0
POLYLINE
  8
Unknown_Area_Type
  70
1
  66
1
  0
VERTEX
  8
Unknown_Area_Type
  10
430175.100
  20
4262931.174
  0
VERTEX
  8
Unknown_Area_Type
  10
430439.341
  20
4262931.174
  0
VERTEX
  8
Unknown_Area_Type
  10
430439.341
  20
4262707.803
  0
VERTEX
  8
Unknown_Area_Type
  10
430175.100
  20
4262707.803
  0
VERTEX
  8
Unknown_Area_Type
  10
430175.100
  20
4262931.174
  0
SEQEND
  8
Unknown_Area_Type
  0
INSERT
  8
FeatureAttribs
  2
FEATURE
  41
1
  42
1
  43
1
  50
0
  10
444368.339
  20
4259432.120
 66
1
  0
ATTRIB
  8
FeatureAttribs
 70
0
  1
raise elevation
  2
NAME
  10
444368.339
  20
4259432.120
 40
366.53038
  0
SEQEND
  0
POLYLINE
  8
Unknown_Area_Type
  70
1
  66
1
  0
VERTEX
  8
Unknown_Area_Type
  10
444225.125
  20
4259556.445
  0
VERTEX
  8
Unknown_Area_Type
  10
444511.553
  20
4259556.445
  0
VERTEX
  8
Unknown_Area_Type
  10
444511.553
  20
4259307.795
  0
VERTEX
  8
Unknown_Area_Type
  10
444225.125
  20
4259307.795
  0
VERTEX
  8
Unknown_Area_Type
  10
444225.125
  20
4259556.445
  0
SEQEND
  8
Unknown_Area_Type
  0
INSERT
  8
FeatureAttribs
  2
FEATURE
  41
1
  42
1
  43
1
  50
0
  10
402849.952
  20
4257080.120
 66
1
  0
ATTRIB
  8
FeatureAttribs
 70
0
  1
raise elevation
  2
NAME
  10
402849.952
  20
4257080.120
 40
366.53038
  0
SEQEND
  0
POLYLINE
  8
Unknown_Area_Type
  70
1
  66
1
  0
VERTEX
  8
Unknown_Area_Type
  10
402682.831
  20
4257280.053
  0
VERTEX
  8
Unknown_Area_Type
  10
403017.074
  20
4257280.053
  0
VERTEX
  8
Unknown_Area_Type
  10
403017.074
  20
4256880.186
  0
VERTEX
  8
Unknown_Area_Type
  10
402682.831
  20
4256880.186
  0
VERTEX
  8
Unknown_Area_Type
  10
402682.831
  20
4257280.053
  0
SEQEND
  8
Unknown_Area_Type
  0
INSERT
  8
FeatureAttribs
  2
FEATURE
  41
1
  42
1
  43
1
  50
0
  10
429904.260
  20
4258017.612
 66
1
  0
ATTRIB
  8
FeatureAttribs
 70
0
  1
raise elevation
  2
NAME
  10
429904.260
  20
4258017.612
 40
366.53038
  0
SEQEND
  0
POLYLINE
  8
Unknown_Area_Type
  70
1
  66
1
  0
VERTEX
  8
Unknown_Area_Type
  10
430082.060
  20
4257917.071
  0
VERTEX
  8
Unknown_Area_Type
  10
429726.460
  20
4257917.071
  0
VERTEX
  8
Unknown_Area_Type
  10
429726.460
  20
4258118.154
  0
VERTEX
  8
Unknown_Area_Type
  10
430082.060
  20
4258118.154
  0
VERTEX
  8
Unknown_Area_Type
  10
430082.060
  20
4257917.071
  0
SEQEND
  8
Unknown_Area_Type
  0
INSERT
  8
FeatureAttribs
  2
FEATURE
  41
1
  42
1
  43
1
  50
0
  10
441760.416
  20
4253165.569
 66
1
  0
ATTRIB
  8
FeatureAttribs
 70
0
  1
raise elevation
  2
NAME
  10
441760.416
  20
4253165.569
 40
366.53038
  0
SEQEND
  0
POLYLINE
  8
Unknown_Area_Type
  70
1
  66
1
  0
VERTEX
  8
Unknown_Area_Type
  10
441600.977
  20
4253388.865
  0
VERTEX
  8
Unknown_Area_Type
  10
441919.855
  20
4253388.865
  0
VERTEX
  8
Unknown_Area_Type
  10
441919.855
  20
4252942.273
  0
VERTEX
  8
Unknown_Area_Type
  10
441600.977
  20
4252942.273
  0
VERTEX
  8
Unknown_Area_Type
  10
441600.977
  20
4253388.865
  0
SEQEND
  8
Unknown_Area_Type
  0
INSERT
  8
FeatureAttribs
  2
FEATURE
  41
1
  42
1
  43
1
  50
0
  10
399029.502
  20
4252140.687
 66
1
  0
ATTRIB
  8
FeatureAttribs
 70
0
  1
raise elevation
  2
NAME
  10
399029.502
  20
4252140.687
 40
366.53038
  0
SEQEND
  0
POLYLINE
  8
Unknown_Area_Type
  70
1
  66
1
  0
VERTEX
  8
Unknown_Area_Type
  10
398588.177
  20
4252350.237
  0
VERTEX
  8
Unknown_Area_Type
  10
399470.827
  20
4252350.237
  0
VERTEX
  8
Unknown_Area_Type
  10
399470.827
  20
4251931.137
  0
VERTEX
  8
Unknown_Area_Type
  10
398588.177
  20
4251931.137
  0
VERTEX
  8
Unknown_Area_Type
  10
398588.177
  20
4252350.237
  0
SEQEND
  8
Unknown_Area_Type
  0
INSERT
  8
FeatureAttribs
  2
FEATURE
  41
1
  42
1
  43
1
  50
0
  10
418828.354
  20
4252117.127
 66
1
  0
ATTRIB
  8
FeatureAttribs
 70
0
  1
raise elevation
  2
NAME
  10
418828.354
  20
4252117.127
 40
366.53038
  0
SEQEND
  0
POLYLINE
  8
Unknown_Area_Type
  70
1
  66
1
  0
VERTEX
  8
Unknown_Area_Type
  10
418693.796
  20
4252340.613
  0
VERTEX
  8
Unknown_Area_Type
  10
418962.911
  20
4252340.613
  0
VERTEX
  8
Unknown_Area_Type
  10
418962.911
  20
4251893.641
  0
VERTEX
  8
Unknown_Area_Type
  10
418693.796
  20
4251893.641
  0
VERTEX
  8
Unknown_Area_Type
  10
418693.796
  20
4252340.613
  0
SEQEND
  8
Unknown_Area_Type
  0
INSERT
  8
FeatureAttribs
  2
FEATURE
  41
1
  42
1
  43
1
  50
0
  10
432113.374
  20
4251164.177
 66
1
  0
ATTRIB
  8
FeatureAttribs
 70
0
  1
raise elevation
  2
NAME
  10
432113.374
  20
4251164.177
 40
366.53038
  0
SEQEND
  0
POLYLINE
  8
Unknown_Area_Type
  70
1
  66
1
  0
VERTEX
  8
Unknown_Area_Type
  10
432005.654
  20
4251257.589
  0
VERTEX
  8
Unknown_Area_Type
  10
432221.095
  20
4251257.589
  0
VERTEX
  8
Unknown_Area_Type
  10
432221.095
  20
4251070.764
  0
VERTEX
  8
Unknown_Area_Type
  10
432005.654
  20
4251070.764
  0
VERTEX
  8
Unknown_Area_Type
  10
432005.654
  20
4251257.589
  0
SEQEND
  8
Unknown_Area_Type
  0
INSERT
  8
FeatureAttribs
  2
FEATURE
  41
1
  42
1
  43
1
  50
0
  10
437371.449
  20
4249469.852
 66
1
  0
ATTRIB
  8
FeatureAttribs
 70
0
  1
raise elevation
  2
NAME
  10
437371.449
  20
4249469.852
 40
366.53038
  0
SEQEND
  0
POLYLINE
  8
Unknown_Area_Type
  70
1
  66
1
  0
VERTEX
  8
Unknown_Area_Type
  10
437263.674
  20
4249600.936
  0
VERTEX
  8
Unknown_Area_Type
  10
437479.225
  20
4249600.936
  0
VERTEX
  8
Unknown_Area_Type
  10
437479.225
  20
4249338.768
  0
VERTEX
  8
Unknown_Area_Type
  10
437263.674
  20
4249338.768
  0
VERTEX
  8
Unknown_Area_Type
  10
437263.674
  20
4249600.936
  0
SEQEND
  8
Unknown_Area_Type
  0
INSERT
  8
FeatureAttribs
  2
FEATURE
  41
1
  42
1
  43
1
  50
0
  10
425415.692
  20
4249065.947
 66
1
  0
ATTRIB
  8
FeatureAttribs
 70
0
  1
raise elevation
  2
NAME
  10
425415.692
  20
4249065.947
 40
366.53038
  0
SEQEND
  0
POLYLINE
  8
Unknown_Area_Type
  70
1
  66
1
  0
VERTEX
  8
Unknown_Area_Type
  10
425022.662
  20
4249480.531
  0
VERTEX
  8
Unknown_Area_Type
  10
425808.722
  20
4249480.531
  0
VERTEX
  8
Unknown_Area_Type
  10
425808.722
  20
4248651.362
  0
VERTEX
  8
Unknown_Area_Type
  10
425022.662
  20
4248651.362
  0
VERTEX
  8
Unknown_Area_Type
  10
425022.662
  20
4249480.531
  0
SEQEND
  8
Unknown_Area_Type
  0
INSERT
  8
FeatureAttribs
  2
FEATURE
  41
1
  42
1
  43
1
  50
0
  10
416485.278
  20
4249528.129
 66
1
  0
ATTRIB
  8
FeatureAttribs
 70
0
  1
raise elevation
  2
NAME
  10
416485.278
  20
4249528.129
 40
366.53038
  0
SEQEND
  0
POLYLINE
  8
Unknown_Area_Type
  70
1
  66
1
  0
VERTEX
  8
Unknown_Area_Type
  10
416417.420
  20
4249616.375
  0
VERTEX
  8
Unknown_Area_Type
  10
416553.136
  20
4249616.375
  0
VERTEX
  8
Unknown_Area_Type
  10
416553.136
  20
4249439.883
  0
VERTEX
  8
Unknown_Area_Type
  10
416417.420
  20
4249439.883
  0
VERTEX
  8
Unknown_Area_Type
  10
416417.420
  20
4249616.375
  0
SEQEND
  8
Unknown_Area_Type
  0
INSERT
  8
FeatureAttribs
  2
FEATURE
  41
1
  42
1
  43
1
  50
0
  10
390571.302
  20
4247460.737
 66
1
  0
ATTRIB
  8
FeatureAttribs
 70
0
  1
raise elevation
  2
NAME
  10
390571.302
  20
4247460.737
 40
366.53038
  0
SEQEND
  0
POLYLINE
  8
Unknown_Area_Type
  70
1
  66
1
  0
VERTEX
  8
Unknown_Area_Type
  10
390415.727
  20
4247583.504
  0
VERTEX
  8
Unknown_Area_Type
  10
390726.877
  20
4247583.504
  0
VERTEX
  8
Unknown_Area_Type
  10
390726.877
  20
4247337.971
  0
VERTEX
  8
Unknown_Area_Type
  10
390415.727
  20
4247337.971
  0
VERTEX
  8
Unknown_Area_Type
  10
390415.727
  20
4247583.504
  0
SEQEND
  8
Unknown_Area_Type
  0
INSERT
  8
FeatureAttribs
  2
FEATURE
  41
1
  42
1
  43
1
  50
0
  10
392777.927
  20
4248066.104
 66
1
  0
ATTRIB
  8
FeatureAttribs
 70
0
  1
raise elevation
  2
NAME
  10
392777.927
  20
4248066.104
 40
366.53038
  0
SEQEND
  0
POLYLINE
  8
Unknown_Area_Type
  70
1
  66
1
  0
VERTEX
  8
Unknown_Area_Type
  10
392610.710
  20
4248262.954
  0
VERTEX
  8
Unknown_Area_Type
  10
392945.144
  20
4248262.954
  0
VERTEX
  8
Unknown_Area_Type
  10
392945.144
  20
4247869.254
  0
VERTEX
  8
Unknown_Area_Type
  10
392610.710
  20
4247869.254
  0
VERTEX
  8
Unknown_Area_Type
  10
392610.710
  20
4248262.954
  0
SEQEND
  8
Unknown_Area_Type
  0
INSERT
  8
FeatureAttribs
  2
FEATURE
  41
1
  42
1
  43
1
  50
0
  10
411832.203
  20
4247231.019
 66
1
  0
ATTRIB
  8
FeatureAttribs
 70
0
  1
raise elevation
  2
NAME
  10
411832.203
  20
4247231.019
 40
366.53038
  0
SEQEND
  0
POLYLINE
  8
Unknown_Area_Type
  70
1
  66
1
  0
VERTEX
  8
Unknown_Area_Type
  10
411674.504
  20
4247366.914
  0
VERTEX
  8
Unknown_Area_Type
  10
411989.903
  20
4247366.914
  0
VERTEX
  8
Unknown_Area_Type
  10
411989.903
  20
4247095.124
  0
VERTEX
  8
Unknown_Area_Type
  10
411674.504
  20
4247095.124
  0
VERTEX
  8
Unknown_Area_Type
  10
411674.504
  20
4247366.914
  0
SEQEND
  8
Unknown_Area_Type
  0
INSERT
  8
FeatureAttribs
  2
FEATURE
  41
1
  42
1
  43
1
  50
0
  10
421428.069
  20
4247065.979
 66
1
  0
ATTRIB
  8
FeatureAttribs
 70
0
  1
raise elevation
  2
NAME
  10
421428.069
  20
4247065.979
 40
366.53038
  0
SEQEND
  0
POLYLINE
  8
Unknown_Area_Type
  70
1
  66
1
  0
VERTEX
  8
Unknown_Area_Type
  10
421238.627
  20
4247240.604
  0
VERTEX
  8
Unknown_Area_Type
  10
421617.510
  20
4247240.604
  0
VERTEX
  8
Unknown_Area_Type
  10
421617.510
  20
4246891.354
  0
VERTEX
  8
Unknown_Area_Type
  10
421238.627
  20
4246891.354
  0
VERTEX
  8
Unknown_Area_Type
  10
421238.627
  20
4247240.604
  0
SEQEND
  8
Unknown_Area_Type
  0
INSERT
  8
FeatureAttribs
  2
FEATURE
  41
1
  42
1
  43
1
  50
0
  10
425151.269
  20
4248014.102
 66
1
  0
ATTRIB
  8
FeatureAttribs
 70
0
  1
raise elevation
  2
NAME
  10
425151.269
  20
4248014.102
 40
366.53038
  0
SEQEND
  0
POLYLINE
  8
Unknown_Area_Type
  70
1
  66
1
  0
VERTEX
  8
Unknown_Area_Type
  10
425076.808
  20
4248119.402
  0
VERTEX
  8
Unknown_Area_Type
  10
425225.730
  20
4248119.402
  0
VERTEX
  8
Unknown_Area_Type
  10
425225.730
  20
4247908.802
  0
VERTEX
  8
Unknown_Area_Type
  10
425076.808
  20
4247908.802
  0
VERTEX
  8
Unknown_Area_Type
  10
425076.808
  20
4248119.402
  0
SEQEND
  8
Unknown_Area_Type
  0
INSERT
  8
FeatureAttribs
  2
FEATURE
  41
1
  42
1
  43
1
  50
0
  10
426033.474
  20
4247974.215
 66
1
  0
ATTRIB
  8
FeatureAttribs
 70
0
  1
raise elevation
  2
NAME
  10
426033.474
  20
4247974.215
 40
366.53038
  0
SEQEND
  0
POLYLINE
  8
Unknown_Area_Type
  70
1
  66
1
  0
VERTEX
  8
Unknown_Area_Type
  10
425936.330
  20
4248067.048
  0
VERTEX
  8
Unknown_Area_Type
  10
426130.619
  20
4248067.048
  0
VERTEX
  8
Unknown_Area_Type
  10
426130.619
  20
4247881.381
  0
VERTEX
  8
Unknown_Area_Type
  10
425936.330
  20
4247881.381
  0
VERTEX
  8
Unknown_Area_Type
  10
425936.330
  20
4248067.048
  0
SEQEND
  8
Unknown_Area_Type
  0
INSERT
  8
FeatureAttribs
  2
FEATURE
  41
1
  42
1
  43
1
  50
0
  10
440140.139
  20
4248313.168
 66
1
  0
ATTRIB
  8
FeatureAttribs
 70
0
  1
raise elevation
  2
NAME
  10
440140.139
  20
4248313.168
 40
366.53038
  0
SEQEND
  0
POLYLINE
  8
Unknown_Area_Type
  70
1
  66
1
  0
VERTEX
  8
Unknown_Area_Type
  10
440026.368
  20
4248408.869
  0
VERTEX
  8
Unknown_Area_Type
  10
440253.909
  20
4248408.869
  0
VERTEX
  8
Unknown_Area_Type
  10
440253.909
  20
4248217.466
  0
VERTEX
  8
Unknown_Area_Type
  10
440026.368
  20
4248217.466
  0
VERTEX
  8
Unknown_Area_Type
  10
440026.368
  20
4248408.869
  0
SEQEND
  8
Unknown_Area_Type
  0
INSERT
  8
FeatureAttribs
  2
FEATURE
  41
1
  42
1
  43
1
  50
0
  10
442118.401
  20
4247698.367
 66
1
  0
ATTRIB
  8
FeatureAttribs
 70
0
  1
raise elevation
  2
NAME
  10
442118.401
  20
4247698.367
 40
366.53038
  0
SEQEND
  0
POLYLINE
  8
Unknown_Area_Type
  70
1
  66
1
  0
VERTEX
  8
Unknown_Area_Type
  10
441987.252
  20
4247847.079
  0
VERTEX
  8
Unknown_Area_Type
  10
442249.550
  20
4247847.079
  0
VERTEX
  8
Unknown_Area_Type
  10
442249.550
  20
4247549.656
  0
VERTEX
  8
Unknown_Area_Type
  10
441987.252
  20
4247549.656
  0
VERTEX
  8
Unknown_Area_Type
  10
441987.252
  20
4247847.079
  0
SEQEND
  8
Unknown_Area_Type
  0
INSERT
  8
FeatureAttribs
  2
FEATURE
  41
1
  42
1
  43
1
  50
0
  10
442852.969
  20
4248233.321
 66
1
  0
ATTRIB
  8
FeatureAttribs
 70
0
  1
raise elevation
  2
NAME
  10
442852.969
  20
4248233.321
 40
366.53038
  0
SEQEND
  0
POLYLINE
  8
Unknown_Area_Type
  70
1
  66
1
  0
VERTEX
  8
Unknown_Area_Type
  10
442678.344
  20
4248368.787
  0
VERTEX
  8
Unknown_Area_Type
  10
443027.594
  20
4248368.787
  0
VERTEX
  8
Unknown_Area_Type
  10
443027.594
  20
4248097.854
  0
VERTEX
  8
Unknown_Area_Type
  10
442678.344
  20
4248097.854
  0
VERTEX
  8
Unknown_Area_Type
  10
442678.344
  20
4248368.787
  0
SEQEND
  8
Unknown_Area_Type
  0
INSERT
  8
FeatureAttribs
  2
FEATURE
  41
1
  42
1
  43
1
  50
0
  10
444205.519
  20
4248500.021
 66
1
  0
ATTRIB
  8
FeatureAttribs
 70
0
  1
raise elevation
  2
NAME
  10
444205.519
  20
4248500.021
 40
366.53038
  0
SEQEND
  0
POLYLINE
  8
Unknown_Area_Type
  70
1
  66
1
  0
VERTEX
  8
Unknown_Area_Type
  10
444035.127
  20
4248658.771
  0
VERTEX
  8
Unknown_Area_Type
  10
444375.910
  20
4248658.771
  0
VERTEX
  8
Unknown_Area_Type
  10
444375.910
  20
4248341.271
  0
VERTEX
  8
Unknown_Area_Type
  10
444035.127
  20
4248341.271
  0
VERTEX
  8
Unknown_Area_Type
  10
444035.127
  20
4248658.771
  0
SEQEND
  8
Unknown_Area_Type
  0
INSERT
  8
FeatureAttribs
  2
FEATURE
  41
1
  42
1
  43
1
  50
0
  10
444495.881
  20
4245199.764
 66
1
  0
ATTRIB
  8
FeatureAttribs
 70
0
  1
raise elevation
  2
NAME
  10
444495.881
  20
4245199.764
 40
366.53038
  0
SEQEND
  0
POLYLINE
  8
Unknown_Area_Type
  70
1
  66
1
  0
VERTEX
  8
Unknown_Area_Type
  10
444290.611
  20
4245389.340
  0
VERTEX
  8
Unknown_Area_Type
  10
444701.151
  20
4245389.340
  0
VERTEX
  8
Unknown_Area_Type
  10
444701.151
  20
4245010.187
  0
VERTEX
  8
Unknown_Area_Type
  10
444290.611
  20
4245010.187
  0
VERTEX
  8
Unknown_Area_Type
  10
444290.611
  20
4245389.340
  0
SEQEND
  8
Unknown_Area_Type
  0
INSERT
  8
FeatureAttribs
  2
FEATURE
  41
1
  42
1
  43
1
  50
0
  10
428211.658
  20
4244082.634
 66
1
  0
ATTRIB
  8
FeatureAttribs
 70
0
  1
raise elevation
  2
NAME
  10
428211.658
  20
4244082.634
 40
366.53038
  0
SEQEND
  0
POLYLINE
  8
Unknown_Area_Type
  70
1
  66
1
  0
VERTEX
  8
Unknown_Area_Type
  10
428151.990
  20
4244152.959
  0
VERTEX
  8
Unknown_Area_Type
  10
428271.325
  20
4244152.959
  0
VERTEX
  8
Unknown_Area_Type
  10
428271.325
  20
4244012.308
  0
VERTEX
  8
Unknown_Area_Type
  10
428151.990
  20
4244012.308
  0
VERTEX
  8
Unknown_Area_Type
  10
428151.990
  20
4244152.959
  0
SEQEND
  8
Unknown_Area_Type
  0
INSERT
  8
FeatureAttribs
  2
FEATURE
  41
1
  42
1
  43
1
  50
0
  10
390610.167
  20
4243797.358
 66
1
  0
ATTRIB
  8
FeatureAttribs
 70
0
  1
raise elevation
  2
NAME
  10
390610.167
  20
4243797.358
 40
366.53038
  0
SEQEND
  0
POLYLINE
  8
Unknown_Area_Type
  70
1
  66
1
  0
VERTEX
  8
Unknown_Area_Type
  10
390526.597
  20
4243691.718
  0
VERTEX
  8
Unknown_Area_Type
  10
390526.597
  20
4243902.998
  0
VERTEX
  8
Unknown_Area_Type
  10
390693.736
  20
4243902.998
  0
VERTEX
  8
Unknown_Area_Type
  10
390693.736
  20
4243691.718
  0
VERTEX
  8
Unknown_Area_Type
  10
390526.597
  20
4243691.718
  0
SEQEND
  8
Unknown_Area_Type
  0
INSERT
  8
FeatureAttribs
  2
FEATURE
  41
1
  42
1
  43
1
  50
0
  10
392596.454
  20
4243936.612
 66
1
  0
ATTRIB
  8
FeatureAttribs
 70
0
  1
raise elevation
  2
NAME
  10
392596.454
  20
4243936.612
 40
366.53038
  0
SEQEND
  0
POLYLINE
  8
Unknown_Area_Type
  70
1
  66
1
  0
VERTEX
  8
Unknown_Area_Type
  10
392470.574
  20
4244053.526
  0
VERTEX
  8
Unknown_Area_Type
  10
392722.333
  20
4244053.526
  0
VERTEX
  8
Unknown_Area_Type
  10
392722.333
  20
4243819.697
  0
VERTEX
  8
Unknown_Area_Type
  10
392470.574
  20
4243819.697
  0
VERTEX
  8
Unknown_Area_Type
  10
392470.574
  20
4244053.526
  0
SEQEND
  8
Unknown_Area_Type
  0
INSERT
  8
FeatureAttribs
  2
FEATURE
  41
1
  42
1
  43
1
  50
0
  10
397348.230
  20
4240521.763
 66
1
  0
ATTRIB
  8
FeatureAttribs
 70
0
  1
raise elevation
  2
NAME
  10
397348.230
  20
4240521.763
 40
366.53038
  0
SEQEND
  0
POLYLINE
  8
Unknown_Area_Type
  70
1
  66
1
  0
VERTEX
  8
Unknown_Area_Type
  10
397212.449
  20
4240666.934
  0
VERTEX
  8
Unknown_Area_Type
  10
397484.011
  20
4240666.934
  0
VERTEX
  8
Unknown_Area_Type
  10
397484.011
  20
4240376.592
  0
VERTEX
  8
Unknown_Area_Type
  10
397212.449
  20
4240376.592
  0
VERTEX
  8
Unknown_Area_Type
  10
397212.449
  20
4240666.934
  0
SEQEND
  8
Unknown_Area_Type
  0
INSERT
  8
FeatureAttribs
  2
FEATURE
  41
1
  42
1
  43
1
  50
0
  10
419106.197
  20
4241762.870
 66
1
  0
ATTRIB
  8
FeatureAttribs
 70
0
  1
raise elevation
  2
NAME
  10
419106.197
  20
4241762.870
 40
366.53038
  0
SEQEND
  0
POLYLINE
  8
Unknown_Area_Type
  70
1
  66
1
  0
VERTEX
  8
Unknown_Area_Type
  10
418956.852
  20
4241843.154
  0
VERTEX
  8
Unknown_Area_Type
  10
419255.543
  20
4241843.154
  0
VERTEX
  8
Unknown_Area_Type
  10
419255.543
  20
4241682.586
  0
VERTEX
  8
Unknown_Area_Type
  10
418956.852
  20
4241682.586
  0
VERTEX
  8
Unknown_Area_Type
  10
418956.852
  20
4241843.154
  0
SEQEND
  8
Unknown_Area_Type
  0
INSERT
  8
FeatureAttribs
  2
FEATURE
  41
1
  42
1
  43
1
  50
0
  10
436533.660
  20
4240971.037
 66
1
  0
ATTRIB
  8
FeatureAttribs
 70
0
  1
raise elevation
  2
NAME
  10
436533.660
  20
4240971.037
 40
366.53038
  0
SEQEND
  0
POLYLINE
  8
Unknown_Area_Type
  70
1
  66
1
  0
VERTEX
  8
Unknown_Area_Type
  10
436345.277
  20
4241157.304
  0
VERTEX
  8
Unknown_Area_Type
  10
436722.044
  20
4241157.304
  0
VERTEX
  8
Unknown_Area_Type
  10
436722.044
  20
4240784.771
  0
VERTEX
  8
Unknown_Area_Type
  10
436345.277
  20
4240784.771
  0
VERTEX
  8
Unknown_Area_Type
  10
436345.277
  20
4241157.304
  0
SEQEND
  8
Unknown_Area_Type
  0
INSERT
  8
FeatureAttribs
  2
FEATURE
  41
1
  42
1
  43
1
  50
0
  10
439036.750
  20
4241717.069
 66
1
  0
ATTRIB
  8
FeatureAttribs
 70
0
  1
raise elevation
  2
NAME
  10
439036.750
  20
4241717.069
 40
366.53038
  0
SEQEND
  0
POLYLINE
  8
Unknown_Area_Type
  70
1
  66
1
  0
VERTEX
  8
Unknown_Area_Type
  10
438941.991
  20
4241863.847
  0
VERTEX
  8
Unknown_Area_Type
  10
439131.510
  20
4241863.847
  0
VERTEX
  8
Unknown_Area_Type
  10
439131.510
  20
4241570.290
  0
VERTEX
  8
Unknown_Area_Type
  10
438941.991
  20
4241570.290
  0
VERTEX
  8
Unknown_Area_Type
  10
438941.991
  20
4241863.847
  0
SEQEND
  8
Unknown_Area_Type
  0
INSERT
  8
FeatureAttribs
  2
FEATURE
  41
1
  42
1
  43
1
  50
0
  10
418672.169
  20
4239872.487
 66
1
  0
ATTRIB
  8
FeatureAttribs
 70
0
  1
raise elevation
  2
NAME
  10
418672.169
  20
4239872.487
 40
366.53038
  0
SEQEND
  0
POLYLINE
  8
Unknown_Area_Type
  70
1
  66
1
  0
VERTEX
  8
Unknown_Area_Type
  10
418465.794
  20
4240033.354
  0
VERTEX
  8
Unknown_Area_Type
  10
418878.544
  20
4240033.354
  0
VERTEX
  8
Unknown_Area_Type
  10
418878.544
  20
4239711.621
  0
VERTEX
  8
Unknown_Area_Type
  10
418465.794
  20
4239711.621
  0
VERTEX
  8
Unknown_Area_Type
  10
418465.794
  20
4240033.354
  0
SEQEND
  8
Unknown_Area_Type
  0
INSERT
  8
FeatureAttribs
  2
FEATURE
  41
1
  42
1
  43
1
  50
0
  10
431348.872
  20
4236700.298
 66
1
  0
ATTRIB
  8
FeatureAttribs
 70
0
  1
raise elevation
  2
NAME
  10
431348.872
  20
4236700.298
 40
366.53038
  0
SEQEND
  0
POLYLINE
  8
Unknown_Area_Type
  70
1
  66
1
  0
VERTEX
  8
Unknown_Area_Type
  10
431239.891
  20
4236784.843
  0
VERTEX
  8
Unknown_Area_Type
  10
431457.852
  20
4236784.843
  0
VERTEX
  8
Unknown_Area_Type
  10
431457.852
  20
4236615.753
  0
VERTEX
  8
Unknown_Area_Type
  10
431239.891
  20
4236615.753
  0
VERTEX
  8
Unknown_Area_Type
  10
431239.891
  20
4236784.843
  0
SEQEND
  8
Unknown_Area_Type
  0
INSERT
  8
FeatureAttribs
  2
FEATURE
  41
1
  42
1
  43
1
  50
0
  10
444561.119
  20
4236287.912
 66
1
  0
ATTRIB
  8
FeatureAttribs
 70
0
  1
raise elevation
  2
NAME
  10
444561.119
  20
4236287.912
 40
366.53038
  0
SEQEND
  0
POLYLINE
  8
Unknown_Area_Type
  70
1
  66
1
  0
VERTEX
  8
Unknown_Area_Type
  10
444309.235
  20
4236515.454
  0
VERTEX
  8
Unknown_Area_Type
  10
444813.002
  20
4236515.454
  0
VERTEX
  8
Unknown_Area_Type
  10
444813.002
  20
4236060.371
  0
VERTEX
  8
Unknown_Area_Type
  10
444309.235
  20
4236060.371
  0
VERTEX
  8
Unknown_Area_Type
  10
444309.235
  20
4236515.454
  0
SEQEND
  8
Unknown_Area_Type
  0
INSERT
  8
FeatureAttribs
  2
FEATURE
  41
1
  42
1
  43
1
  50
0
  10
394128.414
  20
4279591.238
 66
1
  0
ATTRIB
  8
FeatureAttribs
 70
0
  1
raise elevation
  2
NAME
  10
394128.414
  20
4279591.238
 40
366.53038
  0
SEQEND
  0
POLYLINE
  8
Unknown_Area_Type
  70
1
  66
1
  0
VERTEX
  8
Unknown_Area_Type
  10
393857.810
  20
4279789.129
  0
VERTEX
  8
Unknown_Area_Type
  10
394399.018
  20
4279789.129
  0
VERTEX
  8
Unknown_Area_Type
  10
394399.018
  20
4279393.347
  0
VERTEX
  8
Unknown_Area_Type
  10
393857.810
  20
4279393.347
  0
VERTEX
  8
Unknown_Area_Type
  10
393857.810
  20
4279789.129
  0
SEQEND
  8
Unknown_Area_Type
  0
INSERT
  8
FeatureAttribs
  2
FEATURE
  41
1
  42
1
  43
1
  50
0
  10
428915.414
  20
4280164.661
 66
1
  0
ATTRIB
  8
FeatureAttribs
 70
0
  1
raise elevation
  2
NAME
  10
428915.414
  20
4280164.661
 40
366.53038
  0
SEQEND
  0
POLYLINE
  8
Unknown_Area_Type
  70
1
  66
1
  0
VERTEX
  8
Unknown_Area_Type
  10
428807.469
  20
4280259.754
  0
VERTEX
  8
Unknown_Area_Type
  10
429023.358
  20
4280259.754
  0
VERTEX
  8
Unknown_Area_Type
  10
429023.358
  20
4280069.567
  0
VERTEX
  8
Unknown_Area_Type
  10
428807.469
  20
4280069.567
  0
VERTEX
  8
Unknown_Area_Type
  10
428807.469
  20
4280259.754
  0
SEQEND
  8
Unknown_Area_Type
  0
INSERT
  8
FeatureAttribs
  2
FEATURE
  41
1
  42
1
  43
1
  50
0
  10
425057.679
  20
4273608.491
 66
1
  0
ATTRIB
  8
FeatureAttribs
 70
0
  1
raise elevation
  2
NAME
  10
425057.679
  20
4273608.491
 40
366.53038
  0
SEQEND
  0
POLYLINE
  8
Unknown_Area_Type
  70
1
  66
1
  0
VERTEX
  8
Unknown_Area_Type
  10
424964.001
  20
4273748.650
  0
VERTEX
  8
Unknown_Area_Type
  10
425151.357
  20
4273748.650
  0
VERTEX
  8
Unknown_Area_Type
  10
425151.357
  20
4273468.332
  0
VERTEX
  8
Unknown_Area_Type
  10
424964.001
  20
4273468.332
  0
VERTEX
  8
Unknown_Area_Type
  10
424964.001
  20
4273748.650
  0
SEQEND
  8
Unknown_Area_Type
  0
INSERT
  8
FeatureAttribs
  2
FEATURE
  41
1
  42
1
  43
1
  50
0
  10
402676.693
  20
4270602.074
 66
1
  0
ATTRIB
  8
FeatureAttribs
 70
0
  1
raise elevation
  2
NAME
  10
402676.693
  20
4270602.074
 40
366.53038
  0
SEQEND
  0
POLYLINE
  8
Unknown_Area_Type
  70
1
  66
1
  0
VERTEX
  8
Unknown_Area_Type
  10
402597.026
  20
4270650.673
  0
VERTEX
  8
Unknown_Area_Type
  10
402756.361
  20
4270650.673
  0
VERTEX
  8
Unknown_Area_Type
  10
402756.361
  20
4270553.475
  0
VERTEX
  8
Unknown_Area_Type
  10
402597.026
  20
4270553.475
  0
VERTEX
  8
Unknown_Area_Type
  10
402597.026
  20
4270650.673
  0
SEQEND
  8
Unknown_Area_Type
  0
INSERT
  8
FeatureAttribs
  2
FEATURE
  41
1
  42
1
  43
1
  50
0
  10
405229.087
  20
4265425.667
 66
1
  0
ATTRIB
  8
FeatureAttribs
 70
0
  1
raise elevation
  2
NAME
  10
405229.087
  20
4265425.667
 40
366.53038
  0
SEQEND
  0
POLYLINE
  8
Unknown_Area_Type
  70
1
  66
1
  0
VERTEX
  8
Unknown_Area_Type
  10
405145.718
  20
4265525.852
  0
VERTEX
  8
Unknown_Area_Type
  10
405312.456
  20
4265525.852
  0
VERTEX
  8
Unknown_Area_Type
  10
405312.456
  20
4265325.483
  0
VERTEX
  8
Unknown_Area_Type
  10
405145.718
  20
4265325.483
  0
VERTEX
  8
Unknown_Area_Type
  10
405145.718
  20
4265525.852
  0
SEQEND
  8
Unknown_Area_Type
  0
INSERT
  8
FeatureAttribs
  2
FEATURE
  41
1
  42
1
  43
1
  50
0
  10
428731.299
  20
4266977.413
 66
1
  0
ATTRIB
  8
FeatureAttribs
 70
0
  1
raise elevation
  2
NAME
  10
428731.299
  20
4266977.413
 40
366.53038
  0
SEQEND
  0
POLYLINE
  8
Unknown_Area_Type
  70
1
  66
1
  0
VERTEX
  8
Unknown_Area_Type
  10
428649.755
  20
4267048.184
  0
VERTEX
  8
Unknown_Area_Type
  10
428812.843
  20
4267048.184
  0
VERTEX
  8
Unknown_Area_Type
  10
428812.843
  20
4266906.643
  0
VERTEX
  8
Unknown_Area_Type
  10
428649.755
  20
4266906.643
  0
VERTEX
  8
Unknown_Area_Type
  10
428649.755
  20
4267048.184
  0
SEQEND
  8
Unknown_Area_Type
  0
INSERT
  8
FeatureAttribs
  2
FEATURE
  41
1
  42
1
  43
1
  50
0
  10
426897.954
  20
4267276.911
 66
1
  0
ATTRIB
  8
FeatureAttribs
 70
0
  1
raise elevation
  2
NAME
  10
426897.954
  20
4267276.911
 40
366.53038
  0
SEQEND
  0
POLYLINE
  8
Unknown_Area_Type
  70
1
  66
1
  0
VERTEX
  8
Unknown_Area_Type
  10
426818.552
  20
4267357.125
  0
VERTEX
  8
Unknown_Area_Type
  10
426977.356
  20
4267357.125
  0
VERTEX
  8
Unknown_Area_Type
  10
426977.356
  20
4267196.698
  0
VERTEX
  8
Unknown_Area_Type
  10
426818.552
  20
4267196.698
  0
VERTEX
  8
Unknown_Area_Type
  10
426818.552
  20
4267357.125
  0
SEQEND
  8
Unknown_Area_Type
  0
INSERT
  8
FeatureAttribs
  2
FEATURE
  41
1
  42
1
  43
1
  50
0
  10
429394.589
  20
4261441.735
 66
1
  0
ATTRIB
  8
FeatureAttribs
 70
0
  1
raise elevation
  2
NAME
  10
429394.589
  20
4261441.735
 40
366.53038
  0
SEQEND
  0
POLYLINE
  8
Unknown_Area_Type
  70
1
  66
1
  0
VERTEX
  8
Unknown_Area_Type
  10
429232.666
  20
4261529.261
  0
VERTEX
  8
Unknown_Area_Type
  10
429556.512
  20
4261529.261
  0
VERTEX
  8
Unknown_Area_Type
  10
429556.512
  20
4261354.209
  0
VERTEX
  8
Unknown_Area_Type
  10
429232.666
  20
4261354.209
  0
VERTEX
  8
Unknown_Area_Type
  10
429232.666
  20
4261529.261
  0
SEQEND
  8
Unknown_Area_Type
  0
INSERT
  8
FeatureAttribs
  2
FEATURE
  41
1
  42
1
  43
1
  50
0
  10
397861.858
  20
4252534.598
 66
1
  0
ATTRIB
  8
FeatureAttribs
 70
0
  1
raise elevation
  2
NAME
  10
397861.858
  20
4252534.598
 40
366.53038
  0
SEQEND
  0
POLYLINE
  8
Unknown_Area_Type
  70
1
  66
1
  0
VERTEX
  8
Unknown_Area_Type
  10
397761.174
  20
4252622.944
  0
VERTEX
  8
Unknown_Area_Type
  10
397962.542
  20
4252622.944
  0
VERTEX
  8
Unknown_Area_Type
  10
397962.542
  20
4252446.252
  0
VERTEX
  8
Unknown_Area_Type
  10
397761.174
  20
4252446.252
  0
VERTEX
  8
Unknown_Area_Type
  10
397761.174
  20
4252622.944
  0
SEQEND
  8
Unknown_Area_Type
  0
INSERT
  8
FeatureAttribs
  2
FEATURE
  41
1
  42
1
  43
1
  50
0
  10
399163.869
  20
4245422.974
 66
1
  0
ATTRIB
  8
FeatureAttribs
 70
0
  1
raise elevation
  2
NAME
  10
399163.869
  20
4245422.974
 40
366.53038
  0
SEQEND
  0
POLYLINE
  8
Unknown_Area_Type
  70
1
  66
1
  0
VERTEX
  8
Unknown_Area_Type
  10
399061.038
  20
4245518.892
  0
VERTEX
  8
Unknown_Area_Type
  10
399266.700
  20
4245518.892
  0
VERTEX
  8
Unknown_Area_Type
  10
399266.700
  20
4245327.056
  0
VERTEX
  8
Unknown_Area_Type
  10
399061.038
  20
4245327.056
  0
VERTEX
  8
Unknown_Area_Type
  10
399061.038
  20
4245518.892
  0
SEQEND
  8
Unknown_Area_Type
  0
INSERT
  8
FeatureAttribs
  2
FEATURE
  41
1
  42
1
  43
1
  50
0
  10
428503.553
  20
4245129.997
 66
1
  0
ATTRIB
  8
FeatureAttribs
 70
0
  1
raise elevation
  2
NAME
  10
428503.553
  20
4245129.997
 40
366.53038
  0
SEQEND
  0
POLYLINE
  8
Unknown_Area_Type
  70
1
  66
1
  0
VERTEX
  8
Unknown_Area_Type
  10
428366.113
  20
4245238.467
  0
VERTEX
  8
Unknown_Area_Type
  10
428640.994
  20
4245238.467
  0
VERTEX
  8
Unknown_Area_Type
  10
428640.994
  20
4245021.527
  0
VERTEX
  8
Unknown_Area_Type
  10
428366.113
  20
4245021.527
  0
VERTEX
  8
Unknown_Area_Type
  10
428366.113
  20
4245238.467
  0
SEQEND
  8
Unknown_Area_Type
  0
INSERT
  8
FeatureAttribs
  2
FEATURE
  41
1
  42
1
  43
1
  50
0
  10
418735.718
  20
4241215.680
 66
1
  0
ATTRIB
  8
FeatureAttribs
 70
0
  1
raise elevation
  2
NAME
  10
418735.718
  20
4241215.680
 40
366.53038
  0
SEQEND
  0
POLYLINE
  8
Unknown_Area_Type
  70
1
  66
1
  0
VERTEX
  8
Unknown_Area_Type
  10
418597.805
  20
4241357.510
  0
VERTEX
  8
Unknown_Area_Type
  10
418873.631
  20
4241357.510
  0
VERTEX
  8
Unknown_Area_Type
  10
418873.631
  20
4241073.850
  0
VERTEX
  8
Unknown_Area_Type
  10
418597.805
  20
4241073.850
  0
VERTEX
  8
Unknown_Area_Type
  10
418597.805
  20
4241357.510
  0
SEQEND
  8
Unknown_Area_Type
  0
INSERT
  8
FeatureAttribs
  2
FEATURE
  41
1
  42
1
  43
1
  50
0
  10
409500.596
  20
4239136.123
 66
1
  0
ATTRIB
  8
FeatureAttribs
 70
0
  1
raise elevation
  2
NAME
  10
409500.596
  20
4239136.123
 40
366.53038
  0
SEQEND
  0
POLYLINE
  8
Unknown_Area_Type
  70
1
  66
1
  0
VERTEX
  8
Unknown_Area_Type
  10
409429.558
  20
4239220.623
  0
VERTEX
  8
Unknown_Area_Type
  10
409571.635
  20
4239220.623
  0
VERTEX
  8
Unknown_Area_Type
  10
409571.635
  20
4239051.623
  0
VERTEX
  8
Unknown_Area_Type
  10
409429.558
  20
4239051.623
  0
VERTEX
  8
Unknown_Area_Type
  10
409429.558
  20
4239220.623
  0
SEQEND
  8
Unknown_Area_Type
  0
INSERT
  8
FeatureAttribs
  2
FEATURE
  41
1
  42
1
  43
1
  50
0
  10
414237.207
  20
4238903.046
 66
1
  0
ATTRIB
  8
FeatureAttribs
 70
0
  1
raise elevation
  2
NAME
  10
414237.207
  20
4238903.046
 40
366.53038
  0
SEQEND
  0
POLYLINE
  8
Unknown_Area_Type
  70
1
  66
1
  0
VERTEX
  8
Unknown_Area_Type
  10
414049.563
  20
4238992.839
  0
VERTEX
  8
Unknown_Area_Type
  10
414424.852
  20
4238992.839
  0
VERTEX
  8
Unknown_Area_Type
  10
414424.852
  20
4238813.253
  0
VERTEX
  8
Unknown_Area_Type
  10
414049.563
  20
4238813.253
  0
VERTEX
  8
Unknown_Area_Type
  10
414049.563
  20
4238992.839
  0
SEQEND
  8
Unknown_Area_Type
  0
INSERT
  8
FeatureAttribs
  2
FEATURE
  41
1
  42
1
  43
1
  50
0
  10
398512.622
  20
4236618.296
 66
1
  0
ATTRIB
  8
FeatureAttribs
 70
0
  1
raise elevation
  2
NAME
  10
398512.622
  20
4236618.296
 40
366.53038
  0
SEQEND
  0
POLYLINE
  8
Unknown_Area_Type
  70
1
  66
1
  0
VERTEX
  8
Unknown_Area_Type
  10
398335.399
  20
4236711.912
  0
VERTEX
  8
Unknown_Area_Type
  10
398689.844
  20
4236711.912
  0
VERTEX
  8
Unknown_Area_Type
  10
398689.844
  20
4236524.680
  0
VERTEX
  8
Unknown_Area_Type
  10
398335.399
  20
4236524.680
  0
VERTEX
  8
Unknown_Area_Type
  10
398335.399
  20
4236711.912
  0
SEQEND
  8
Unknown_Area_Type
  0
INSERT
  8
FeatureAttribs
  2
FEATURE
  41
1
  42
1
  43
1
  50
0
  10
461551.148
  20
4279107.301
 66
1
  0
ATTRIB
  8
FeatureAttribs
 70
0
  1
raise elevation
  2
NAME
  10
461551.148
  20
4279107.301
 40
366.53038
  0
SEQEND
  0
POLYLINE
  8
Unknown_Area_Type
  70
1
  66
1
  0
VERTEX
  8
Unknown_Area_Type
  10
461445.209
  20
4279210.489
  0
VERTEX
  8
Unknown_Area_Type
  10
461657.087
  20
4279210.489
  0
VERTEX
  8
Unknown_Area_Type
  10
461657.087
  20
4279004.114
  0
VERTEX
  8
Unknown_Area_Type
  10
461445.209
  20
4279004.114
  0
VERTEX
  8
Unknown_Area_Type
  10
461445.209
  20
4279210.489
  0
SEQEND
  8
Unknown_Area_Type
  0
INSERT
  8
FeatureAttribs
  2
FEATURE
  41
1
  42
1
  43
1
  50
0
  10
464433.369
  20
4278919.733
 66
1
  0
ATTRIB
  8
FeatureAttribs
 70
0
  1
raise elevation
  2
NAME
  10
464433.369
  20
4278919.733
 40
366.53038
  0
SEQEND
  0
POLYLINE
  8
Unknown_Area_Type
  70
1
  66
1
  0
VERTEX
  8
Unknown_Area_Type
  10
464354.741
  20
4279042.998
  0
VERTEX
  8
Unknown_Area_Type
  10
464511.997
  20
4279042.998
  0
VERTEX
  8
Unknown_Area_Type
  10
464511.997
  20
4278796.469
  0
VERTEX
  8
Unknown_Area_Type
  10
464354.741
  20
4278796.469
  0
VERTEX
  8
Unknown_Area_Type
  10
464354.741
  20
4279042.998
  0
SEQEND
  8
Unknown_Area_Type
  0
INSERT
  8
FeatureAttribs
  2
FEATURE
  41
1
  42
1
  43
1
  50
0
  10
476708.803
  20
4279667.221
 66
1
  0
ATTRIB
  8
FeatureAttribs
 70
0
  1
raise elevation
  2
NAME
  10
476708.803
  20
4279667.221
 40
366.53038
  0
SEQEND
  0
POLYLINE
  8
Unknown_Area_Type
  70
1
  66
1
  0
VERTEX
  8
Unknown_Area_Type
  10
476580.786
  20
4279798.335
  0
VERTEX
  8
Unknown_Area_Type
  10
476836.820
  20
4279798.335
  0
VERTEX
  8
Unknown_Area_Type
  10
476836.820
  20
4279536.107
  0
VERTEX
  8
Unknown_Area_Type
  10
476580.786
  20
4279536.107
  0
VERTEX
  8
Unknown_Area_Type
  10
476580.786
  20
4279798.335
  0
SEQEND
  8
Unknown_Area_Type
  0
INSERT
  8
FeatureAttribs
  2
FEATURE
  41
1
  42
1
  43
1
  50
0
  10
488531.529
  20
4279621.994
 66
1
  0
ATTRIB
  8
FeatureAttribs
 70
0
  1
raise elevation
  2
NAME
  10
488531.529
  20
4279621.994
 40
366.53038
  0
SEQEND
  0
POLYLINE
  8
Unknown_Area_Type
  70
1
  66
1
  0
VERTEX
  8
Unknown_Area_Type
  10
488343.674
  20
4279732.195
  0
VERTEX
  8
Unknown_Area_Type
  10
488719.384
  20
4279732.195
  0
VERTEX
  8
Unknown_Area_Type
  10
488719.384
  20
4279511.792
  0
VERTEX
  8
Unknown_Area_Type
  10
488343.674
  20
4279511.792
  0
VERTEX
  8
Unknown_Area_Type
  10
488343.674
  20
4279732.195
  0
SEQEND
  8
Unknown_Area_Type
  0
INSERT
  8
FeatureAttribs
  2
FEATURE
  41
1
  42
1
  43
1
  50
0
  10
490073.657
  20
4279771.576
 66
1
  0
ATTRIB
  8
FeatureAttribs
 70
0
  1
raise elevation
  2
NAME
  10
490073.657
  20
4279771.576
 40
366.53038
  0
SEQEND
  0
POLYLINE
  8
Unknown_Area_Type
  70
1
  66
1
  0
VERTEX
  8
Unknown_Area_Type
  10
489996.647
  20
4279630.419
  0
VERTEX
  8
Unknown_Area_Type
  10
489996.647
  20
4279912.734
  0
VERTEX
  8
Unknown_Area_Type
  10
490150.668
  20
4279912.734
  0
VERTEX
  8
Unknown_Area_Type
  10
490150.668
  20
4279630.419
  0
VERTEX
  8
Unknown_Area_Type
  10
489996.647
  20
4279630.419
  0
SEQEND
  8
Unknown_Area_Type
  0
INSERT
  8
FeatureAttribs
  2
FEATURE
  41
1
  42
1
  43
1
  50
0
  10
498164.312
  20
4278761.463
 66
1
  0
ATTRIB
  8
FeatureAttribs
 70
0
  1
raise elevation
  2
NAME
  10
498164.312
  20
4278761.463
 40
366.53038
  0
SEQEND
  0
POLYLINE
  8
Unknown_Area_Type
  70
1
  66
1
  0
VERTEX
  8
Unknown_Area_Type
  10
498060.471
  20
4278839.055
  0
VERTEX
  8
Unknown_Area_Type
  10
498268.153
  20
4278839.055
  0
VERTEX
  8
Unknown_Area_Type
  10
498268.153
  20
4278683.870
  0
VERTEX
  8
Unknown_Area_Type
  10
498060.471
  20
4278683.870
  0
VERTEX
  8
Unknown_Area_Type
  10
498060.471
  20
4278839.055
  0
SEQEND
  8
Unknown_Area_Type
  0
INSERT
  8
FeatureAttribs
  2
FEATURE
  41
1
  42
1
  43
1
  50
0
  10
498811.012
  20
4278427.440
 66
1
  0
ATTRIB
  8
FeatureAttribs
 70
0
  1
raise elevation
  2
NAME
  10
498811.012
  20
4278427.440
 40
366.53038
  0
SEQEND
  0
POLYLINE
  8
Unknown_Area_Type
  70
1
  66
1
  0
VERTEX
  8
Unknown_Area_Type
  10
498741.207
  20
4278500.418
  0
VERTEX
  8
Unknown_Area_Type
  10
498880.816
  20
4278500.418
  0
VERTEX
  8
Unknown_Area_Type
  10
498880.816
  20
4278354.463
  0
VERTEX
  8
Unknown_Area_Type
  10
498741.207
  20
4278354.463
  0
VERTEX
  8
Unknown_Area_Type
  10
498741.207
  20
4278500.418
  0
SEQEND
  8
Unknown_Area_Type
  0
INSERT
  8
FeatureAttribs
  2
FEATURE
  41
1
  42
1
  43
1
  50
0
  10
496596.543
  20
4278213.402
 66
1
  0
ATTRIB
  8
FeatureAttribs
 70
0
  1
raise elevation
  2
NAME
  10
496596.543
  20
4278213.402
 40
366.53038
  0
SEQEND
  0
POLYLINE
  8
Unknown_Area_Type
  70
1
  66
1
  0
VERTEX
  8
Unknown_Area_Type
  10
496484.268
  20
4278285.146
  0
VERTEX
  8
Unknown_Area_Type
  10
496708.819
  20
4278285.146
  0
VERTEX
  8
Unknown_Area_Type
  10
496708.819
  20
4278141.657
  0
VERTEX
  8
Unknown_Area_Type
  10
496484.268
  20
4278141.657
  0
VERTEX
  8
Unknown_Area_Type
  10
496484.268
  20
4278285.146
  0
SEQEND
  8
Unknown_Area_Type
  0
INSERT
  8
FeatureAttribs
  2
FEATURE
  41
1
  42
1
  43
1
  50
0
  10
496570.455
  20
4277551.860
 66
1
  0
ATTRIB
  8
FeatureAttribs
 70
0
  1
raise elevation
  2
NAME
  10
496570.455
  20
4277551.860
 40
366.53038
  0
SEQEND
  0
POLYLINE
  8
Unknown_Area_Type
  70
1
  66
1
  0
VERTEX
  8
Unknown_Area_Type
  10
496450.725
  20
4277686.032
  0
VERTEX
  8
Unknown_Area_Type
  10
496690.184
  20
4277686.032
  0
VERTEX
  8
Unknown_Area_Type
  10
496690.184
  20
4277417.689
  0
VERTEX
  8
Unknown_Area_Type
  10
496450.725
  20
4277417.689
  0
VERTEX
  8
Unknown_Area_Type
  10
496450.725
  20
4277686.032
  0
SEQEND
  8
Unknown_Area_Type
  0
INSERT
  8
FeatureAttribs
  2
FEATURE
  41
1
  42
1
  43
1
  50
0
  10
478310.169
  20
4277446.205
 66
1
  0
ATTRIB
  8
FeatureAttribs
 70
0
  1
raise elevation
  2
NAME
  10
478310.169
  20
4277446.205
 40
366.53038
  0
SEQEND
  0
POLYLINE
  8
Unknown_Area_Type
  70
1
  66
1
  0
VERTEX
  8
Unknown_Area_Type
  10
478211.624
  20
4277555.529
  0
VERTEX
  8
Unknown_Area_Type
  10
478408.715
  20
4277555.529
  0
VERTEX
  8
Unknown_Area_Type
  10
478408.715
  20
4277336.882
  0
VERTEX
  8
Unknown_Area_Type
  10
478211.624
  20
4277336.882
  0
VERTEX
  8
Unknown_Area_Type
  10
478211.624
  20
4277555.529
  0
SEQEND
  8
Unknown_Area_Type
  0
INSERT
  8
FeatureAttribs
  2
FEATURE
  41
1
  42
1
  43
1
  50
0
  10
461689.673
  20
4277163.087
 66
1
  0
ATTRIB
  8
FeatureAttribs
 70
0
  1
raise elevation
  2
NAME
  10
461689.673
  20
4277163.087
 40
366.53038
  0
SEQEND
  0
POLYLINE
  8
Unknown_Area_Type
  70
1
  66
1
  0
VERTEX
  8
Unknown_Area_Type
  10
461528.632
  20
4277237.129
  0
VERTEX
  8
Unknown_Area_Type
  10
461850.714
  20
4277237.129
  0
VERTEX
  8
Unknown_Area_Type
  10
461850.714
  20
4277089.045
  0
VERTEX
  8
Unknown_Area_Type
  10
461528.632
  20
4277089.045
  0
VERTEX
  8
Unknown_Area_Type
  10
461528.632
  20
4277237.129
  0
SEQEND
  8
Unknown_Area_Type
  0
INSERT
  8
FeatureAttribs
  2
FEATURE
  41
1
  42
1
  43
1
  50
0
  10
486333.378
  20
4275724.866
 66
1
  0
ATTRIB
  8
FeatureAttribs
 70
0
  1
raise elevation
  2
NAME
  10
486333.378
  20
4275724.866
 40
366.53038
  0
SEQEND
  0
POLYLINE
  8
Unknown_Area_Type
  70
1
  66
1
  0
VERTEX
  8
Unknown_Area_Type
  10
486171.669
  20
4275817.132
  0
VERTEX
  8
Unknown_Area_Type
  10
486495.087
  20
4275817.132
  0
VERTEX
  8
Unknown_Area_Type
  10
486495.087
  20
4275632.600
  0
VERTEX
  8
Unknown_Area_Type
  10
486171.669
  20
4275632.600
  0
VERTEX
  8
Unknown_Area_Type
  10
486171.669
  20
4275817.132
  0
SEQEND
  8
Unknown_Area_Type
  0
INSERT
  8
FeatureAttribs
  2
FEATURE
  41
1
  42
1
  43
1
  50
0
  10
496811.461
  20
4273570.732
 66
1
  0
ATTRIB
  8
FeatureAttribs
 70
0
  1
raise elevation
  2
NAME
  10
496811.461
  20
4273570.732
 40
366.53038
  0
SEQEND
  0
POLYLINE
  8
Unknown_Area_Type
  70
1
  66
1
  0
VERTEX
  8
Unknown_Area_Type
  10
496713.391
  20
4273671.757
  0
VERTEX
  8
Unknown_Area_Type
  10
496909.531
  20
4273671.757
  0
VERTEX
  8
Unknown_Area_Type
  10
496909.531
  20
4273469.707
  0
VERTEX
  8
Unknown_Area_Type
  10
496713.391
  20
4273469.707
  0
VERTEX
  8
Unknown_Area_Type
  10
496713.391
  20
4273671.757
  0
SEQEND
  8
Unknown_Area_Type
  0
INSERT
  8
FeatureAttribs
  2
FEATURE
  41
1
  42
1
  43
1
  50
0
  10
494294.887
  20
4271166.309
 66
1
  0
ATTRIB
  8
FeatureAttribs
 70
0
  1
raise elevation
  2
NAME
  10
494294.887
  20
4271166.309
 40
366.53038
  0
SEQEND
  0
POLYLINE
  8
Unknown_Area_Type
  70
1
  66
1
  0
VERTEX
  8
Unknown_Area_Type
  10
494198.791
  20
4271244.484
  0
VERTEX
  8
Unknown_Area_Type
  10
494390.984
  20
4271244.484
  0
VERTEX
  8
Unknown_Area_Type
  10
494390.984
  20
4271088.133
  0
VERTEX
  8
Unknown_Area_Type
  10
494198.791
  20
4271088.133
  0
VERTEX
  8
Unknown_Area_Type
  10
494198.791
  20
4271244.484
  0
SEQEND
  8
Unknown_Area_Type
  0
INSERT
  8
FeatureAttribs
  2
FEATURE
  41
1
  42
1
  43
1
  50
0
  10
446802.885
  20
4269608.604
 66
1
  0
ATTRIB
  8
FeatureAttribs
 70
0
  1
raise elevation
  2
NAME
  10
446802.885
  20
4269608.604
 40
366.53038
  0
SEQEND
  0
POLYLINE
  8
Unknown_Area_Type
  70
1
  66
1
  0
VERTEX
  8
Unknown_Area_Type
  10
446621.856
  20
4269743.203
  0
VERTEX
  8
Unknown_Area_Type
  10
446983.914
  20
4269743.203
  0
VERTEX
  8
Unknown_Area_Type
  10
446983.914
  20
4269474.005
  0
VERTEX
  8
Unknown_Area_Type
  10
446621.856
  20
4269474.005
  0
VERTEX
  8
Unknown_Area_Type
  10
446621.856
  20
4269743.203
  0
SEQEND
  8
Unknown_Area_Type
  0
INSERT
  8
FeatureAttribs
  2
FEATURE
  41
1
  42
1
  43
1
  50
0
  10
448518.068
  20
4268743.083
 66
1
  0
ATTRIB
  8
FeatureAttribs
 70
0
  1
raise elevation
  2
NAME
  10
448518.068
  20
4268743.083
 40
366.53038
  0
SEQEND
  0
POLYLINE
  8
Unknown_Area_Type
  70
1
  66
1
  0
VERTEX
  8
Unknown_Area_Type
  10
448407.887
  20
4268896.128
  0
VERTEX
  8
Unknown_Area_Type
  10
448628.250
  20
4268896.128
  0
VERTEX
  8
Unknown_Area_Type
  10
448628.250
  20
4268590.039
  0
VERTEX
  8
Unknown_Area_Type
  10
448407.887
  20
4268590.039
  0
VERTEX
  8
Unknown_Area_Type
  10
448407.887
  20
4268896.128
  0
SEQEND
  8
Unknown_Area_Type
  0
INSERT
  8
FeatureAttribs
  2
FEATURE
  41
1
  42
1
  43
1
  50
0
  10
459514.522
  20
4269817.646
 66
1
  0
ATTRIB
  8
FeatureAttribs
 70
0
  1
raise elevation
  2
NAME
  10
459514.522
  20
4269817.646
 40
366.53038
  0
SEQEND
  0
POLYLINE
  8
Unknown_Area_Type
  70
1
  66
1
  0
VERTEX
  8
Unknown_Area_Type
  10
459376.858
  20
4269921.036
  0
VERTEX
  8
Unknown_Area_Type
  10
459652.186
  20
4269921.036
  0
VERTEX
  8
Unknown_Area_Type
  10
459652.186
  20
4269714.257
  0
VERTEX
  8
Unknown_Area_Type
  10
459376.858
  20
4269714.257
  0
VERTEX
  8
Unknown_Area_Type
  10
459376.858
  20
4269921.036
  0
SEQEND
  8
Unknown_Area_Type
  0
INSERT
  8
FeatureAttribs
  2
FEATURE
  41
1
  42
1
  43
1
  50
0
  10
460308.982
  20
4270187.182
 66
1
  0
ATTRIB
  8
FeatureAttribs
 70
0
  1
raise elevation
  2
NAME
  10
460308.982
  20
4270187.182
 40
366.53038
  0
SEQEND
  0
POLYLINE
  8
Unknown_Area_Type
  70
1
  66
1
  0
VERTEX
  8
Unknown_Area_Type
  10
460206.747
  20
4270267.796
  0
VERTEX
  8
Unknown_Area_Type
  10
460411.217
  20
4270267.796
  0
VERTEX
  8
Unknown_Area_Type
  10
460411.217
  20
4270106.568
  0
VERTEX
  8
Unknown_Area_Type
  10
460206.747
  20
4270106.568
  0
VERTEX
  8
Unknown_Area_Type
  10
460206.747
  20
4270267.796
  0
SEQEND
  8
Unknown_Area_Type
  0
INSERT
  8
FeatureAttribs
  2
FEATURE
  41
1
  42
1
  43
1
  50
0
  10
490431.215
  20
4269816.610
 66
1
  0
ATTRIB
  8
FeatureAttribs
 70
0
  1
raise elevation
  2
NAME
  10
490431.215
  20
4269816.610
 40
366.53038
  0
SEQEND
  0
POLYLINE
  8
Unknown_Area_Type
  70
1
  66
1
  0
VERTEX
  8
Unknown_Area_Type
  10
490318.686
  20
4269930.740
  0
VERTEX
  8
Unknown_Area_Type
  10
490543.745
  20
4269930.740
  0
VERTEX
  8
Unknown_Area_Type
  10
490543.745
  20
4269702.480
  0
VERTEX
  8
Unknown_Area_Type
  10
490318.686
  20
4269702.480
  0
VERTEX
  8
Unknown_Area_Type
  10
490318.686
  20
4269930.740
  0
SEQEND
  8
Unknown_Area_Type
  0
INSERT
  8
FeatureAttribs
  2
FEATURE
  41
1
  42
1
  43
1
  50
0
  10
499380.532
  20
4268906.344
 66
1
  0
ATTRIB
  8
FeatureAttribs
 70
0
  1
raise elevation
  2
NAME
  10
499380.532
  20
4268906.344
 40
366.53038
  0
SEQEND
  0
POLYLINE
  8
Unknown_Area_Type
  70
1
  66
1
  0
VERTEX
  8
Unknown_Area_Type
  10
499124.415
  20
4269083.085
  0
VERTEX
  8
Unknown_Area_Type
  10
499636.649
  20
4269083.085
  0
VERTEX
  8
Unknown_Area_Type
  10
499636.649
  20
4268729.602
  0
VERTEX
  8
Unknown_Area_Type
  10
499124.415
  20
4268729.602
  0
VERTEX
  8
Unknown_Area_Type
  10
499124.415
  20
4269083.085
  0
SEQEND
  8
Unknown_Area_Type
  0
INSERT
  8
FeatureAttribs
  2
FEATURE
  41
1
  42
1
  43
1
  50
0
  10
456501.146
  20
4266897.849
 66
1
  0
ATTRIB
  8
FeatureAttribs
 70
0
  1
raise elevation
  2
NAME
  10
456501.146
  20
4266897.849
 40
366.53038
  0
SEQEND
  0
POLYLINE
  8
Unknown_Area_Type
  70
1
  66
1
  0
VERTEX
  8
Unknown_Area_Type
  10
456402.211
  20
4266990.246
  0
VERTEX
  8
Unknown_Area_Type
  10
456600.082
  20
4266990.246
  0
VERTEX
  8
Unknown_Area_Type
  10
456600.082
  20
4266805.452
  0
VERTEX
  8
Unknown_Area_Type
  10
456402.211
  20
4266805.452
  0
VERTEX
  8
Unknown_Area_Type
  10
456402.211
  20
4266990.246
  0
SEQEND
  8
Unknown_Area_Type
  0
INSERT
  8
FeatureAttribs
  2
FEATURE
  41
1
  42
1
  43
1
  50
0
  10
457025.799
  20
4264555.195
 66
1
  0
ATTRIB
  8
FeatureAttribs
 70
0
  1
culvert
  2
NAME
  10
457025.799
  20
4264555.195
 40
366.53038
  0
SEQEND
  0
POLYLINE
  8
Unknown_Area_Type
  70
1
  66
1
  0
VERTEX
  8
Unknown_Area_Type
  10
456923.531
  20
4264683.498
  0
VERTEX
  8
Unknown_Area_Type
  10
457128.068
  20
4264683.498
  0
VERTEX
  8
Unknown_Area_Type
  10
457128.068
  20
4264426.892
  0
VERTEX
  8
Unknown_Area_Type
  10
456923.531
  20
4264426.892
  0
VERTEX
  8
Unknown_Area_Type
  10
456923.531
  20
4264683.498
  0
SEQEND
  8
Unknown_Area_Type
  0
INSERT
  8
FeatureAttribs
  2
FEATURE
  41
1
  42
1
  43
1
  50
0
  10
475884.117
  20
4265976.261
 66
1
  0
ATTRIB
  8
FeatureAttribs
 70
0
  1
raise elevation
  2
NAME
  10
475884.117
  20
4265976.261
 40
366.53038
  0
SEQEND
  0
POLYLINE
  8
Unknown_Area_Type
  70
1
  66
1
  0
VERTEX
  8
Unknown_Area_Type
  10
475715.600
  20
4266189.138
  0
VERTEX
  8
Unknown_Area_Type
  10
476052.635
  20
4266189.138
  0
VERTEX
  8
Unknown_Area_Type
  10
476052.635
  20
4265763.383
  0
VERTEX
  8
Unknown_Area_Type
  10
475715.600
  20
4265763.383
  0
VERTEX
  8
Unknown_Area_Type
  10
475715.600
  20
4266189.138
  0
SEQEND
  8
Unknown_Area_Type
  0
INSERT
  8
FeatureAttribs
  2
FEATURE
  41
1
  42
1
  43
1
  50
0
  10
493490.907
  20
4262635.683
 66
1
  0
ATTRIB
  8
FeatureAttribs
 70
0
  1
raise elevation
  2
NAME
  10
493490.907
  20
4262635.683
 40
366.53038
  0
SEQEND
  0
POLYLINE
  8
Unknown_Area_Type
  70
1
  66
1
  0
VERTEX
  8
Unknown_Area_Type
  10
493335.332
  20
4262794.963
  0
VERTEX
  8
Unknown_Area_Type
  10
493646.482
  20
4262794.963
  0
VERTEX
  8
Unknown_Area_Type
  10
493646.482
  20
4262476.404
  0
VERTEX
  8
Unknown_Area_Type
  10
493335.332
  20
4262476.404
  0
VERTEX
  8
Unknown_Area_Type
  10
493335.332
  20
4262794.963
  0
SEQEND
  8
Unknown_Area_Type
  0
INSERT
  8
FeatureAttribs
  2
FEATURE
  41
1
  42
1
  43
1
  50
0
  10
488730.953
  20
4264042.989
 66
1
  0
ATTRIB
  8
FeatureAttribs
 70
0
  1
raise elevation
  2
NAME
  10
488730.953
  20
4264042.989
 40
366.53038
  0
SEQEND
  0
POLYLINE
  8
Unknown_Area_Type
  70
1
  66
1
  0
VERTEX
  8
Unknown_Area_Type
  10
488664.210
  20
4264136.842
  0
VERTEX
  8
Unknown_Area_Type
  10
488797.697
  20
4264136.842
  0
VERTEX
  8
Unknown_Area_Type
  10
488797.697
  20
4263949.135
  0
VERTEX
  8
Unknown_Area_Type
  10
488664.210
  20
4263949.135
  0
VERTEX
  8
Unknown_Area_Type
  10
488664.210
  20
4264136.842
  0
SEQEND
  8
Unknown_Area_Type
  0
INSERT
  8
FeatureAttribs
  2
FEATURE
  41
1
  42
1
  43
1
  50
0
  10
461036.078
  20
4261297.220
 66
1
  0
ATTRIB
  8
FeatureAttribs
 70
0
  1
raise elevation
  2
NAME
  10
461036.078
  20
4261297.220
 40
366.53038
  0
SEQEND
  0
POLYLINE
  8
Unknown_Area_Type
  70
1
  66
1
  0
VERTEX
  8
Unknown_Area_Type
  10
460740.578
  20
4261482.667
  0
VERTEX
  8
Unknown_Area_Type
  10
461331.577
  20
4261482.667
  0
VERTEX
  8
Unknown_Area_Type
  10
461331.577
  20
4261111.773
  0
VERTEX
  8
Unknown_Area_Type
  10
460740.578
  20
4261111.773
  0
VERTEX
  8
Unknown_Area_Type
  10
460740.578
  20
4261482.667
  0
SEQEND
  8
Unknown_Area_Type
  0
INSERT
  8
FeatureAttribs
  2
FEATURE
  41
1
  42
1
  43
1
  50
0
  10
477299.029
  20
4260769.528
 66
1
  0
ATTRIB
  8
FeatureAttribs
 70
0
  1
raise elevation
  2
NAME
  10
477299.029
  20
4260769.528
 40
366.53038
  0
SEQEND
  0
POLYLINE
  8
Unknown_Area_Type
  70
1
  66
1
  0
VERTEX
  8
Unknown_Area_Type
  10
477211.624
  20
4260850.211
  0
VERTEX
  8
Unknown_Area_Type
  10
477386.435
  20
4260850.211
  0
VERTEX
  8
Unknown_Area_Type
  10
477386.435
  20
4260688.846
  0
VERTEX
  8
Unknown_Area_Type
  10
477211.624
  20
4260688.846
  0
VERTEX
  8
Unknown_Area_Type
  10
477211.624
  20
4260850.211
  0
SEQEND
  8
Unknown_Area_Type
  0
INSERT
  8
FeatureAttribs
  2
FEATURE
  41
1
  42
1
  43
1
  50
0
  10
486614.915
  20
4261471.552
 66
1
  0
ATTRIB
  8
FeatureAttribs
 70
0
  1
raise elevation
  2
NAME
  10
486614.915
  20
4261471.552
 40
366.53038
  0
SEQEND
  0
POLYLINE
  8
Unknown_Area_Type
  70
1
  66
1
  0
VERTEX
  8
Unknown_Area_Type
  10
486300.590
  20
4261708.619
  0
VERTEX
  8
Unknown_Area_Type
  10
486929.240
  20
4261708.619
  0
VERTEX
  8
Unknown_Area_Type
  10
486929.240
  20
4261234.485
  0
VERTEX
  8
Unknown_Area_Type
  10
486300.590
  20
4261234.485
  0
VERTEX
  8
Unknown_Area_Type
  10
486300.590
  20
4261708.619
  0
SEQEND
  8
Unknown_Area_Type
  0
INSERT
  8
FeatureAttribs
  2
FEATURE
  41
1
  42
1
  43
1
  50
0
  10
483867.482
  20
4257377.919
 66
1
  0
ATTRIB
  8
FeatureAttribs
 70
0
  1
culvert
  2
NAME
  10
483867.482
  20
4257377.919
 40
366.53038
  0
SEQEND
  0
POLYLINE
  8
Unknown_Area_Type
  70
1
  66
1
  0
VERTEX
  8
Unknown_Area_Type
  10
483684.390
  20
4257519.735
  0
VERTEX
  8
Unknown_Area_Type
  10
484050.574
  20
4257519.735
  0
VERTEX
  8
Unknown_Area_Type
  10
484050.574
  20
4257236.102
  0
VERTEX
  8
Unknown_Area_Type
  10
483684.390
  20
4257236.102
  0
VERTEX
  8
Unknown_Area_Type
  10
483684.390
  20
4257519.735
  0
SEQEND
  8
Unknown_Area_Type
  0
INSERT
  8
FeatureAttribs
  2
FEATURE
  41
1
  42
1
  43
1
  50
0
  10
460056.504
  20
4253719.898
 66
1
  0
ATTRIB
  8
FeatureAttribs
 70
0
  1
raise elevation
  2
NAME
  10
460056.504
  20
4253719.898
 40
366.53038
  0
SEQEND
  0
POLYLINE
  8
Unknown_Area_Type
  70
1
  66
1
  0
VERTEX
  8
Unknown_Area_Type
  10
459973.682
  20
4253787.524
  0
VERTEX
  8
Unknown_Area_Type
  10
460139.326
  20
4253787.524
  0
VERTEX
  8
Unknown_Area_Type
  10
460139.326
  20
4253652.272
  0
VERTEX
  8
Unknown_Area_Type
  10
459973.682
  20
4253652.272
  0
VERTEX
  8
Unknown_Area_Type
  10
459973.682
  20
4253787.524
  0
SEQEND
  8
Unknown_Area_Type
  0
INSERT
  8
FeatureAttribs
  2
FEATURE
  41
1
  42
1
  43
1
  50
0
  10
491667.523
  20
4251743.601
 66
1
  0
ATTRIB
  8
FeatureAttribs
 70
0
  1
raise elevation
  2
NAME
  10
491667.523
  20
4251743.601
 40
366.53038
  0
SEQEND
  0
POLYLINE
  8
Unknown_Area_Type
  70
1
  66
1
  0
VERTEX
  8
Unknown_Area_Type
  10
491568.538
  20
4251823.536
  0
VERTEX
  8
Unknown_Area_Type
  10
491766.508
  20
4251823.536
  0
VERTEX
  8
Unknown_Area_Type
  10
491766.508
  20
4251663.666
  0
VERTEX
  8
Unknown_Area_Type
  10
491568.538
  20
4251663.666
  0
VERTEX
  8
Unknown_Area_Type
  10
491568.538
  20
4251823.536
  0
SEQEND
  8
Unknown_Area_Type
  0
INSERT
  8
FeatureAttribs
  2
FEATURE
  41
1
  42
1
  43
1
  50
0
  10
470064.699
  20
4248573.644
 66
1
  0
ATTRIB
  8
FeatureAttribs
 70
0
  1
culvert
  2
NAME
  10
470064.699
  20
4248573.644
 40
366.53038
  0
SEQEND
  0
POLYLINE
  8
Unknown_Area_Type
  70
1
  66
1
  0
VERTEX
  8
Unknown_Area_Type
  10
469868.907
  20
4248695.352
  0
VERTEX
  8
Unknown_Area_Type
  10
470260.490
  20
4248695.352
  0
VERTEX
  8
Unknown_Area_Type
  10
470260.490
  20
4248451.935
  0
VERTEX
  8
Unknown_Area_Type
  10
469868.907
  20
4248451.935
  0
VERTEX
  8
Unknown_Area_Type
  10
469868.907
  20
4248695.352
  0
SEQEND
  8
Unknown_Area_Type
  0
INSERT
  8
FeatureAttribs
  2
FEATURE
  41
1
  42
1
  43
1
  50
0
  10
445410.537
  20
4248982.071
 66
1
  0
ATTRIB
  8
FeatureAttribs
 70
0
  1
raise elevation
  2
NAME
  10
445410.537
  20
4248982.071
 40
366.53038
  0
SEQEND
  0
POLYLINE
  8
Unknown_Area_Type
  70
1
  66
1
  0
VERTEX
  8
Unknown_Area_Type
  10
445310.803
  20
4249064.204
  0
VERTEX
  8
Unknown_Area_Type
  10
445510.270
  20
4249064.204
  0
VERTEX
  8
Unknown_Area_Type
  10
445510.270
  20
4248899.937
  0
VERTEX
  8
Unknown_Area_Type
  10
445310.803
  20
4248899.937
  0
VERTEX
  8
Unknown_Area_Type
  10
445310.803
  20
4249064.204
  0
SEQEND
  8
Unknown_Area_Type
  0
INSERT
  8
FeatureAttribs
  2
FEATURE
  41
1
  42
1
  43
1
  50
0
  10
446216.016
  20
4247063.605
 66
1
  0
ATTRIB
  8
FeatureAttribs
 70
0
  1
raise elevation
  2
NAME
  10
446216.016
  20
4247063.605
 40
366.53038
  0
SEQEND
  0
POLYLINE
  8
Unknown_Area_Type
  70
1
  66
1
  0
VERTEX
  8
Unknown_Area_Type
  10
446133.429
  20
4247115.327
  0
VERTEX
  8
Unknown_Area_Type
  10
446298.603
  20
4247115.327
  0
VERTEX
  8
Unknown_Area_Type
  10
446298.603
  20
4247011.884
  0
VERTEX
  8
Unknown_Area_Type
  10
446133.429
  20
4247011.884
  0
VERTEX
  8
Unknown_Area_Type
  10
446133.429
  20
4247115.327
  0
SEQEND
  8
Unknown_Area_Type
  0
INSERT
  8
FeatureAttribs
  2
FEATURE
  41
1
  42
1
  43
1
  50
0
  10
455081.064
  20
4247796.396
 66
1
  0
ATTRIB
  8
FeatureAttribs
 70
0
  1
raise elevation
  2
NAME
  10
455081.064
  20
4247796.396
 40
366.53038
  0
SEQEND
  0
POLYLINE
  8
Unknown_Area_Type
  70
1
  66
1
  0
VERTEX
  8
Unknown_Area_Type
  10
454983.220
  20
4247924.232
  0
VERTEX
  8
Unknown_Area_Type
  10
455178.908
  20
4247924.232
  0
VERTEX
  8
Unknown_Area_Type
  10
455178.908
  20
4247668.561
  0
VERTEX
  8
Unknown_Area_Type
  10
454983.220
  20
4247668.561
  0
VERTEX
  8
Unknown_Area_Type
  10
454983.220
  20
4247924.232
  0
SEQEND
  8
Unknown_Area_Type
  0
INSERT
  8
FeatureAttribs
  2
FEATURE
  41
1
  42
1
  43
1
  50
0
  10
473972.818
  20
4247285.394
 66
1
  0
ATTRIB
  8
FeatureAttribs
 70
0
  1
raise elevation
  2
NAME
  10
473972.818
  20
4247285.394
 40
366.53038
  0
SEQEND
  0
POLYLINE
  8
Unknown_Area_Type
  70
1
  66
1
  0
VERTEX
  8
Unknown_Area_Type
  10
473775.427
  20
4247491.890
  0
VERTEX
  8
Unknown_Area_Type
  10
474170.210
  20
4247491.890
  0
VERTEX
  8
Unknown_Area_Type
  10
474170.210
  20
4247078.897
  0
VERTEX
  8
Unknown_Area_Type
  10
473775.427
  20
4247078.897
  0
VERTEX
  8
Unknown_Area_Type
  10
473775.427
  20
4247491.890
  0
SEQEND
  8
Unknown_Area_Type
  0
INSERT
  8
FeatureAttribs
  2
FEATURE
  41
1
  42
1
  43
1
  50
0
  10
478005.336
  20
4246866.888
 66
1
  0
ATTRIB
  8
FeatureAttribs
 70
0
  1
raise elevation
  2
NAME
  10
478005.336
  20
4246866.888
 40
366.53038
  0
SEQEND
  0
POLYLINE
  8
Unknown_Area_Type
  70
1
  66
1
  0
VERTEX
  8
Unknown_Area_Type
  10
477912.751
  20
4246955.751
  0
VERTEX
  8
Unknown_Area_Type
  10
478097.922
  20
4246955.751
  0
VERTEX
  8
Unknown_Area_Type
  10
478097.922
  20
4246778.025
  0
VERTEX
  8
Unknown_Area_Type
  10
477912.751
  20
4246778.025
  0
VERTEX
  8
Unknown_Area_Type
  10
477912.751
  20
4246955.751
  0
SEQEND
  8
Unknown_Area_Type
  0
INSERT
  8
FeatureAttribs
  2
FEATURE
  41
1
  42
1
  43
1
  50
0
  10
480019.706
  20
4247486.913
 66
1
  0
ATTRIB
  8
FeatureAttribs
 70
0
  1
raise elevation
  2
NAME
  10
480019.706
  20
4247486.913
 40
366.53038
  0
SEQEND
  0
POLYLINE
  8
Unknown_Area_Type
  70
1
  66
1
  0
VERTEX
  8
Unknown_Area_Type
  10
479911.388
  20
4247554.512
  0
VERTEX
  8
Unknown_Area_Type
  10
480128.023
  20
4247554.512
  0
VERTEX
  8
Unknown_Area_Type
  10
480128.023
  20
4247419.313
  0
VERTEX
  8
Unknown_Area_Type
  10
479911.388
  20
4247419.313
  0
VERTEX
  8
Unknown_Area_Type
  10
479911.388
  20
4247554.512
  0
SEQEND
  8
Unknown_Area_Type
  0
INSERT
  8
FeatureAttribs
  2
FEATURE
  41
1
  42
1
  43
1
  50
0
  10
487638.862
  20
4246829.988
 66
1
  0
ATTRIB
  8
FeatureAttribs
 70
0
  1
raise elevation
  2
NAME
  10
487638.862
  20
4246829.988
 40
366.53038
  0
SEQEND
  0
POLYLINE
  8
Unknown_Area_Type
  70
1
  66
1
  0
VERTEX
  8
Unknown_Area_Type
  10
487554.140
  20
4246901.207
  0
VERTEX
  8
Unknown_Area_Type
  10
487723.584
  20
4246901.207
  0
VERTEX
  8
Unknown_Area_Type
  10
487723.584
  20
4246758.768
  0
VERTEX
  8
Unknown_Area_Type
  10
487554.140
  20
4246758.768
  0
VERTEX
  8
Unknown_Area_Type
  10
487554.140
  20
4246901.207
  0
SEQEND
  8
Unknown_Area_Type
  0
INSERT
  8
FeatureAttribs
  2
FEATURE
  41
1
  42
1
  43
1
  50
0
  10
498811.149
  20
4244654.635
 66
1
  0
ATTRIB
  8
FeatureAttribs
 70
0
  1
culvert
  2
NAME
  10
498811.149
  20
4244654.635
 40
366.53038
  0
SEQEND
  0
POLYLINE
  8
Unknown_Area_Type
  70
1
  66
1
  0
VERTEX
  8
Unknown_Area_Type
  10
498710.607
  20
4244752.002
  0
VERTEX
  8
Unknown_Area_Type
  10
498911.690
  20
4244752.002
  0
VERTEX
  8
Unknown_Area_Type
  10
498911.690
  20
4244557.269
  0
VERTEX
  8
Unknown_Area_Type
  10
498710.607
  20
4244557.269
  0
VERTEX
  8
Unknown_Area_Type
  10
498710.607
  20
4244752.002
  0
SEQEND
  8
Unknown_Area_Type
  0
INSERT
  8
FeatureAttribs
  2
FEATURE
  41
1
  42
1
  43
1
  50
0
  10
455569.195
  20
4245320.483
 66
1
  0
ATTRIB
  8
FeatureAttribs
 70
0
  1
raise elevation
  2
NAME
  10
455569.195
  20
4245320.483
 40
366.53038
  0
SEQEND
  0
POLYLINE
  8
Unknown_Area_Type
  70
1
  66
1
  0
VERTEX
  8
Unknown_Area_Type
  10
455440.566
  20
4245475.362
  0
VERTEX
  8
Unknown_Area_Type
  10
455697.824
  20
4245475.362
  0
VERTEX
  8
Unknown_Area_Type
  10
455697.824
  20
4245165.603
  0
VERTEX
  8
Unknown_Area_Type
  10
455440.566
  20
4245165.603
  0
VERTEX
  8
Unknown_Area_Type
  10
455440.566
  20
4245475.362
  0
SEQEND
  8
Unknown_Area_Type
  0
INSERT
  8
FeatureAttribs
  2
FEATURE
  41
1
  42
1
  43
1
  50
0
  10
452770.009
  20
4245650.847
 66
1
  0
ATTRIB
  8
FeatureAttribs
 70
0
  1
raise elevation
  2
NAME
  10
452770.009
  20
4245650.847
 40
366.53038
  0
SEQEND
  0
POLYLINE
  8
Unknown_Area_Type
  70
1
  66
1
  0
VERTEX
  8
Unknown_Area_Type
  10
452648.072
  20
4245773.215
  0
VERTEX
  8
Unknown_Area_Type
  10
452891.945
  20
4245773.215
  0
VERTEX
  8
Unknown_Area_Type
  10
452891.945
  20
4245528.478
  0
VERTEX
  8
Unknown_Area_Type
  10
452648.072
  20
4245528.478
  0
VERTEX
  8
Unknown_Area_Type
  10
452648.072
  20
4245773.215
  0
SEQEND
  8
Unknown_Area_Type
  0
INSERT
  8
FeatureAttribs
  2
FEATURE
  41
1
  42
1
  43
1
  50
0
  10
476942.807
  20
4243597.360
 66
1
  0
ATTRIB
  8
FeatureAttribs
 70
0
  1
raise elevation
  2
NAME
  10
476942.807
  20
4243597.360
 40
366.53038
  0
SEQEND
  0
POLYLINE
  8
Unknown_Area_Type
  70
1
  66
1
  0
VERTEX
  8
Unknown_Area_Type
  10
476796.757
  20
4243729.652
  0
VERTEX
  8
Unknown_Area_Type
  10
477088.857
  20
4243729.652
  0
VERTEX
  8
Unknown_Area_Type
  10
477088.857
  20
4243465.069
  0
VERTEX
  8
Unknown_Area_Type
  10
476796.757
  20
4243465.069
  0
VERTEX
  8
Unknown_Area_Type
  10
476796.757
  20
4243729.652
  0
SEQEND
  8
Unknown_Area_Type
  0
INSERT
  8
FeatureAttribs
  2
FEATURE
  41
1
  42
1
  43
1
  50
0
  10
479762.207
  20
4243479.885
 66
1
  0
ATTRIB
  8
FeatureAttribs
 70
0
  1
raise elevation
  2
NAME
  10
479762.207
  20
4243479.885
 40
366.53038
  0
SEQEND
  0
POLYLINE
  8
Unknown_Area_Type
  70
1
  66
1
  0
VERTEX
  8
Unknown_Area_Type
  10
479573.824
  20
4243655.569
  0
VERTEX
  8
Unknown_Area_Type
  10
479950.590
  20
4243655.569
  0
VERTEX
  8
Unknown_Area_Type
  10
479950.590
  20
4243304.202
  0
VERTEX
  8
Unknown_Area_Type
  10
479573.824
  20
4243304.202
  0
VERTEX
  8
Unknown_Area_Type
  10
479573.824
  20
4243655.569
  0
SEQEND
  8
Unknown_Area_Type
  0
INSERT
  8
FeatureAttribs
  2
FEATURE
  41
1
  42
1
  43
1
  50
0
  10
446294.646
  20
4240009.154
 66
1
  0
ATTRIB
  8
FeatureAttribs
 70
0
  1
raise elevation
  2
NAME
  10
446294.646
  20
4240009.154
 40
366.53038
  0
SEQEND
  0
POLYLINE
  8
Unknown_Area_Type
  70
1
  66
1
  0
VERTEX
  8
Unknown_Area_Type
  10
446137.245
  20
4239854.824
  0
VERTEX
  8
Unknown_Area_Type
  10
446137.245
  20
4240163.484
  0
VERTEX
  8
Unknown_Area_Type
  10
446452.047
  20
4240163.484
  0
VERTEX
  8
Unknown_Area_Type
  10
446452.047
  20
4239854.824
  0
VERTEX
  8
Unknown_Area_Type
  10
446137.245
  20
4239854.824
  0
SEQEND
  8
Unknown_Area_Type
  0
INSERT
  8
FeatureAttribs
  2
FEATURE
  41
1
  42
1
  43
1
  50
0
  10
455015.416
  20
4240145.841
 66
1
  0
ATTRIB
  8
FeatureAttribs
 70
0
  1
raise elevation
  2
NAME
  10
455015.416
  20
4240145.841
 40
366.53038
  0
SEQEND
  0
POLYLINE
  8
Unknown_Area_Type
  70
1
  66
1
  0
VERTEX
  8
Unknown_Area_Type
  10
454803.615
  20
4240396.591
  0
VERTEX
  8
Unknown_Area_Type
  10
455227.218
  20
4240396.591
  0
VERTEX
  8
Unknown_Area_Type
  10
455227.218
  20
4239895.090
  0
VERTEX
  8
Unknown_Area_Type
  10
454803.615
  20
4239895.090
  0
VERTEX
  8
Unknown_Area_Type
  10
454803.615
  20
4240396.591
  0
SEQEND
  8
Unknown_Area_Type
  0
INSERT
  8
FeatureAttribs
  2
FEATURE
  41
1
  42
1
  43
1
  50
0
  10
465162.499
  20
4237136.235
 66
1
  0
ATTRIB
  8
FeatureAttribs
 70
0
  1
raise elevation
  2
NAME
  10
465162.499
  20
4237136.235
 40
366.53038
  0
SEQEND
  0
POLYLINE
  8
Unknown_Area_Type
  70
1
  66
1
  0
VERTEX
  8
Unknown_Area_Type
  10
465006.924
  20
4237307.685
  0
VERTEX
  8
Unknown_Area_Type
  10
465318.074
  20
4237307.685
  0
VERTEX
  8
Unknown_Area_Type
  10
465318.074
  20
4236964.785
  0
VERTEX
  8
Unknown_Area_Type
  10
465006.924
  20
4236964.785
  0
VERTEX
  8
Unknown_Area_Type
  10
465006.924
  20
4237307.685
  0
SEQEND
  8
Unknown_Area_Type
  0
INSERT
  8
FeatureAttribs
  2
FEATURE
  41
1
  42
1
  43
1
  50
0
  10
462136.724
  20
4237395.527
 66
1
  0
ATTRIB
  8
FeatureAttribs
 70
0
  1
raise elevation
  2
NAME
  10
462136.724
  20
4237395.527
 40
366.53038
  0
SEQEND
  0
POLYLINE
  8
Unknown_Area_Type
  70
1
  66
1
  0
VERTEX
  8
Unknown_Area_Type
  10
461956.807
  20
4237544.752
  0
VERTEX
  8
Unknown_Area_Type
  10
462316.640
  20
4237544.752
  0
VERTEX
  8
Unknown_Area_Type
  10
462316.640
  20
4237246.302
  0
VERTEX
  8
Unknown_Area_Type
  10
461956.807
  20
4237246.302
  0
VERTEX
  8
Unknown_Area_Type
  10
461956.807
  20
4237544.752
  0
SEQEND
  8
Unknown_Area_Type
  0
INSERT
  8
FeatureAttribs
  2
FEATURE
  41
1
  42
1
  43
1
  50
0
  10
446020.133
  20
4235560.553
 66
1
  0
ATTRIB
  8
FeatureAttribs
 70
0
  1
raise elevation
  2
NAME
  10
446020.133
  20
4235560.553
 40
366.53038
  0
SEQEND
  0
POLYLINE
  8
Unknown_Area_Type
  70
1
  66
1
  0
VERTEX
  8
Unknown_Area_Type
  10
445752.976
  20
4235877.483
  0
VERTEX
  8
Unknown_Area_Type
  10
446287.290
  20
4235877.483
  0
VERTEX
  8
Unknown_Area_Type
  10
446287.290
  20
4235243.624
  0
VERTEX
  8
Unknown_Area_Type
  10
445752.976
  20
4235243.624
  0
VERTEX
  8
Unknown_Area_Type
  10
445752.976
  20
4235877.483
  0
SEQEND
  8
Unknown_Area_Type
  0
INSERT
  8
FeatureAttribs
  2
FEATURE
  41
1
  42
1
  43
1
  50
0
  10
449712.949
  20
4235388.927
 66
1
  0
ATTRIB
  8
FeatureAttribs
 70
0
  1
raise elevation
  2
NAME
  10
449712.949
  20
4235388.927
 40
366.53038
  0
SEQEND
  0
POLYLINE
  8
Unknown_Area_Type
  70
1
  66
1
  0
VERTEX
  8
Unknown_Area_Type
  10
449504.457
  20
4235531.802
  0
VERTEX
  8
Unknown_Area_Type
  10
449921.440
  20
4235531.802
  0
VERTEX
  8
Unknown_Area_Type
  10
449921.440
  20
4235246.052
  0
VERTEX
  8
Unknown_Area_Type
  10
449504.457
  20
4235246.052
  0
VERTEX
  8
Unknown_Area_Type
  10
449504.457
  20
4235531.802
  0
SEQEND
  8
Unknown_Area_Type
  0
INSERT
  8
FeatureAttribs
  2
FEATURE
  41
1
  42
1
  43
1
  50
0
  10
454721.397
  20
4222328.616
 66
1
  0
ATTRIB
  8
FeatureAttribs
 70
0
  1
raise elevation
  2
NAME
  10
454721.397
  20
4222328.616
 40
366.53038
  0
SEQEND
  0
POLYLINE
  8
Unknown_Area_Type
  70
1
  66
1
  0
VERTEX
  8
Unknown_Area_Type
  10
454613.488
  20
4222404.318
  0
VERTEX
  8
Unknown_Area_Type
  10
454829.305
  20
4222404.318
  0
VERTEX
  8
Unknown_Area_Type
  10
454829.305
  20
4222252.914
  0
VERTEX
  8
Unknown_Area_Type
  10
454613.488
  20
4222252.914
  0
VERTEX
  8
Unknown_Area_Type
  10
454613.488
  20
4222404.318
  0
SEQEND
  8
Unknown_Area_Type
  0
INSERT
  8
FeatureAttribs
  2
FEATURE
  41
1
  42
1
  43
1
  50
0
  10
454172.361
  20
4221966.863
 66
1
  0
ATTRIB
  8
FeatureAttribs
 70
0
  1
raise elevation
  2
NAME
  10
454172.361
  20
4221966.863
 40
366.53038
  0
SEQEND
  0
POLYLINE
  8
Unknown_Area_Type
  70
1
  66
1
  0
VERTEX
  8
Unknown_Area_Type
  10
454081.313
  20
4222059.156
  0
VERTEX
  8
Unknown_Area_Type
  10
454263.408
  20
4222059.156
  0
VERTEX
  8
Unknown_Area_Type
  10
454263.408
  20
4221874.571
  0
VERTEX
  8
Unknown_Area_Type
  10
454081.313
  20
4221874.571
  0
VERTEX
  8
Unknown_Area_Type
  10
454081.313
  20
4222059.156
  0
SEQEND
  8
Unknown_Area_Type
  0
INSERT
  8
FeatureAttribs
  2
FEATURE
  41
1
  42
1
  43
1
  50
0
  10
479686.432
  20
4221381.548
 66
1
  0
ATTRIB
  8
FeatureAttribs
 70
0
  1
raise elevation
  2
NAME
  10
479686.432
  20
4221381.548
 40
366.53038
  0
SEQEND
  0
POLYLINE
  8
Unknown_Area_Type
  70
1
  66
1
  0
VERTEX
  8
Unknown_Area_Type
  10
479568.771
  20
4221544.786
  0
VERTEX
  8
Unknown_Area_Type
  10
479804.094
  20
4221544.786
  0
VERTEX
  8
Unknown_Area_Type
  10
479804.094
  20
4221218.311
  0
VERTEX
  8
Unknown_Area_Type
  10
479568.771
  20
4221218.311
  0
VERTEX
  8
Unknown_Area_Type
  10
479568.771
  20
4221544.786
  0
SEQEND
  8
Unknown_Area_Type
  0
INSERT
  8
FeatureAttribs
  2
FEATURE
  41
1
  42
1
  43
1
  50
0
  10
492978.271
  20
4219431.564
 66
1
  0
ATTRIB
  8
FeatureAttribs
 70
0
  1
raise elevation
  2
NAME
  10
492978.271
  20
4219431.564
 40
366.53038
  0
SEQEND
  0
POLYLINE
  8
Unknown_Area_Type
  70
1
  66
1
  0
VERTEX
  8
Unknown_Area_Type
  10
492887.204
  20
4219540.668
  0
VERTEX
  8
Unknown_Area_Type
  10
493069.337
  20
4219540.668
  0
VERTEX
  8
Unknown_Area_Type
  10
493069.337
  20
4219322.460
  0
VERTEX
  8
Unknown_Area_Type
  10
492887.204
  20
4219322.460
  0
VERTEX
  8
Unknown_Area_Type
  10
492887.204
  20
4219540.668
  0
SEQEND
  8
Unknown_Area_Type
  0
INSERT
  8
FeatureAttribs
  2
FEATURE
  41
1
  42
1
  43
1
  50
0
  10
492676.105
  20
4219524.118
 66
1
  0
ATTRIB
  8
FeatureAttribs
 70
0
  1
raise elevation
  2
NAME
  10
492676.105
  20
4219524.118
 40
366.53038
  0
SEQEND
  0
POLYLINE
  8
Unknown_Area_Type
  70
1
  66
1
  0
VERTEX
  8
Unknown_Area_Type
  10
492550.796
  20
4219609.227
  0
VERTEX
  8
Unknown_Area_Type
  10
492801.415
  20
4219609.227
  0
VERTEX
  8
Unknown_Area_Type
  10
492801.415
  20
4219439.009
  0
VERTEX
  8
Unknown_Area_Type
  10
492550.796
  20
4219439.009
  0
VERTEX
  8
Unknown_Area_Type
  10
492550.796
  20
4219609.227
  0
SEQEND
  8
Unknown_Area_Type
  0
INSERT
  8
FeatureAttribs
  2
FEATURE
  41
1
  42
1
  43
1
  50
0
  10
482224.749
  20
4219825.438
 66
1
  0
ATTRIB
  8
FeatureAttribs
 70
0
  1
raise elevation
  2
NAME
  10
482224.749
  20
4219825.438
 40
366.53038
  0
SEQEND
  0
POLYLINE
  8
Unknown_Area_Type
  70
1
  66
1
  0
VERTEX
  8
Unknown_Area_Type
  10
482000.495
  20
4220052.395
  0
VERTEX
  8
Unknown_Area_Type
  10
482449.004
  20
4220052.395
  0
VERTEX
  8
Unknown_Area_Type
  10
482449.004
  20
4219598.482
  0
VERTEX
  8
Unknown_Area_Type
  10
482000.495
  20
4219598.482
  0
VERTEX
  8
Unknown_Area_Type
  10
482000.495
  20
4220052.395
  0
SEQEND
  8
Unknown_Area_Type
  0
INSERT
  8
FeatureAttribs
  2
FEATURE
  41
1
  42
1
  43
1
  50
0
  10
454111.463
  20
4216795.486
 66
1
  0
ATTRIB
  8
FeatureAttribs
 70
0
  1
raise elevation
  2
NAME
  10
454111.463
  20
4216795.486
 40
366.53038
  0
SEQEND
  0
POLYLINE
  8
Unknown_Area_Type
  70
1
  66
1
  0
VERTEX
  8
Unknown_Area_Type
  10
453875.336
  20
4216980.700
  0
VERTEX
  8
Unknown_Area_Type
  10
454347.589
  20
4216980.700
  0
VERTEX
  8
Unknown_Area_Type
  10
454347.589
  20
4216610.271
  0
VERTEX
  8
Unknown_Area_Type
  10
453875.336
  20
4216610.271
  0
VERTEX
  8
Unknown_Area_Type
  10
453875.336
  20
4216980.700
  0
SEQEND
  8
Unknown_Area_Type
  0
INSERT
  8
FeatureAttribs
  2
FEATURE
  41
1
  42
1
  43
1
  50
0
  10
532358.210
  20
4215147.772
 66
1
  0
ATTRIB
  8
FeatureAttribs
 70
0
  1
raise elevation
  2
NAME
  10
532358.210
  20
4215147.772
 40
366.53038
  0
SEQEND
  0
POLYLINE
  8
Unknown_Area_Type
  70
1
  66
1
  0
VERTEX
  8
Unknown_Area_Type
  10
532166.736
  20
4214960.024
  0
VERTEX
  8
Unknown_Area_Type
  10
532166.736
  20
4215335.519
  0
VERTEX
  8
Unknown_Area_Type
  10
532549.684
  20
4215335.519
  0
VERTEX
  8
Unknown_Area_Type
  10
532549.684
  20
4214960.024
  0
VERTEX
  8
Unknown_Area_Type
  10
532166.736
  20
4214960.024
  0
SEQEND
  8
Unknown_Area_Type
  0
INSERT
  8
FeatureAttribs
  2
FEATURE
  41
1
  42
1
  43
1
  50
0
  10
531471.651
  20
4214961.888
 66
1
  0
ATTRIB
  8
FeatureAttribs
 70
0
  1
raise elevation
  2
NAME
  10
531471.651
  20
4214961.888
 40
366.53038
  0
SEQEND
  0
POLYLINE
  8
Unknown_Area_Type
  70
1
  66
1
  0
VERTEX
  8
Unknown_Area_Type
  10
530993.664
  20
4214730.814
  0
VERTEX
  8
Unknown_Area_Type
  10
530993.664
  20
4215192.962
  0
VERTEX
  8
Unknown_Area_Type
  10
531949.638
  20
4215192.962
  0
VERTEX
  8
Unknown_Area_Type
  10
531949.638
  20
4214730.814
  0
VERTEX
  8
Unknown_Area_Type
  10
530993.664
  20
4214730.814
  0
SEQEND
  8
Unknown_Area_Type
  0
INSERT
  8
FeatureAttribs
  2
FEATURE
  41
1
  42
1
  43
1
  50
0
  10
453872.199
  20
4215646.777
 66
1
  0
ATTRIB
  8
FeatureAttribs
 70
0
  1
raise elevation
  2
NAME
  10
453872.199
  20
4215646.777
 40
366.53038
  0
SEQEND
  0
POLYLINE
  8
Unknown_Area_Type
  70
1
  66
1
  0
VERTEX
  8
Unknown_Area_Type
  10
453668.999
  20
4215453.102
  0
VERTEX
  8
Unknown_Area_Type
  10
453668.999
  20
4215840.452
  0
VERTEX
  8
Unknown_Area_Type
  10
454075.399
  20
4215840.452
  0
VERTEX
  8
Unknown_Area_Type
  10
454075.399
  20
4215453.102
  0
VERTEX
  8
Unknown_Area_Type
  10
453668.999
  20
4215453.102
  0
SEQEND
  8
Unknown_Area_Type
  0
INSERT
  8
FeatureAttribs
  2
FEATURE
  41
1
  42
1
  43
1
  50
0
  10
465709.321
  20
4208451.948
 66
1
  0
ATTRIB
  8
FeatureAttribs
 70
0
  1
raise elevation
  2
NAME
  10
465709.321
  20
4208451.948
 40
366.53038
  0
SEQEND
  0
POLYLINE
  8
Unknown_Area_Type
  70
1
  66
1
  0
VERTEX
  8
Unknown_Area_Type
  10
465538.434
  20
4208572.537
  0
VERTEX
  8
Unknown_Area_Type
  10
465880.208
  20
4208572.537
  0
VERTEX
  8
Unknown_Area_Type
  10
465880.208
  20
4208331.359
  0
VERTEX
  8
Unknown_Area_Type
  10
465538.434
  20
4208331.359
  0
VERTEX
  8
Unknown_Area_Type
  10
465538.434
  20
4208572.537
  0
SEQEND
  8
Unknown_Area_Type
  0
INSERT
  8
FeatureAttribs
  2
FEATURE
  41
1
  42
1
  43
1
  50
0
  10
520323.419
  20
4209664.535
 66
1
  0
ATTRIB
  8
FeatureAttribs
 70
0
  1
raise elevation
  2
NAME
  10
520323.419
  20
4209664.535
 40
366.53038
  0
SEQEND
  0
POLYLINE
  8
Unknown_Area_Type
  70
1
  66
1
  0
VERTEX
  8
Unknown_Area_Type
  10
520254.381
  20
4209745.543
  0
VERTEX
  8
Unknown_Area_Type
  10
520392.458
  20
4209745.543
  0
VERTEX
  8
Unknown_Area_Type
  10
520392.458
  20
4209583.527
  0
VERTEX
  8
Unknown_Area_Type
  10
520254.381
  20
4209583.527
  0
VERTEX
  8
Unknown_Area_Type
  10
520254.381
  20
4209745.543
  0
SEQEND
  8
Unknown_Area_Type
  0
INSERT
  8
FeatureAttribs
  2
FEATURE
  41
1
  42
1
  43
1
  50
0
  10
498313.246
  20
4207761.593
 66
1
  0
ATTRIB
  8
FeatureAttribs
 70
0
  1
raise elevation
  2
NAME
  10
498313.246
  20
4207761.593
 40
366.53038
  0
SEQEND
  0
POLYLINE
  8
Unknown_Area_Type
  70
1
  66
1
  0
VERTEX
  8
Unknown_Area_Type
  10
498212.885
  20
4207848.684
  0
VERTEX
  8
Unknown_Area_Type
  10
498413.607
  20
4207848.684
  0
VERTEX
  8
Unknown_Area_Type
  10
498413.607
  20
4207674.501
  0
VERTEX
  8
Unknown_Area_Type
  10
498212.885
  20
4207674.501
  0
VERTEX
  8
Unknown_Area_Type
  10
498212.885
  20
4207848.684
  0
SEQEND
  8
Unknown_Area_Type
  0
INSERT
  8
FeatureAttribs
  2
FEATURE
  41
1
  42
1
  43
1
  50
0
  10
562749.995
  20
4220733.148
 66
1
  0
ATTRIB
  8
FeatureAttribs
 70
0
  1
raise elevation
  2
NAME
  10
562749.995
  20
4220733.148
 40
366.53038
  0
SEQEND
  0
POLYLINE
  8
Unknown_Area_Type
  70
1
  66
1
  0
VERTEX
  8
Unknown_Area_Type
  10
562567.873
  20
4220908.229
  0
VERTEX
  8
Unknown_Area_Type
  10
562932.116
  20
4220908.229
  0
VERTEX
  8
Unknown_Area_Type
  10
562932.116
  20
4220558.066
  0
VERTEX
  8
Unknown_Area_Type
  10
562567.873
  20
4220558.066
  0
VERTEX
  8
Unknown_Area_Type
  10
562567.873
  20
4220908.229
  0
SEQEND
  8
Unknown_Area_Type
  0
INSERT
  8
FeatureAttribs
  2
FEATURE
  41
1
  42
1
  43
1
  50
0
  10
593317.984
  20
4220959.238
 66
1
  0
ATTRIB
  8
FeatureAttribs
 70
0
  1
raise elevation
  2
NAME
  10
593317.984
  20
4220959.238
 40
366.53038
  0
SEQEND
  0
POLYLINE
  8
Unknown_Area_Type
  70
1
  66
1
  0
VERTEX
  8
Unknown_Area_Type
  10
593160.407
  20
4221039.905
  0
VERTEX
  8
Unknown_Area_Type
  10
593475.560
  20
4221039.905
  0
VERTEX
  8
Unknown_Area_Type
  10
593475.560
  20
4220878.571
  0
VERTEX
  8
Unknown_Area_Type
  10
593160.407
  20
4220878.571
  0
VERTEX
  8
Unknown_Area_Type
  10
593160.407
  20
4221039.905
  0
SEQEND
  8
Unknown_Area_Type
  0
INSERT
  8
FeatureAttribs
  2
FEATURE
  41
1
  42
1
  43
1
  50
0
  10
555220.192
  20
4216649.821
 66
1
  0
ATTRIB
  8
FeatureAttribs
 70
0
  1
raise elevation
  2
NAME
  10
555220.192
  20
4216649.821
 40
366.53038
  0
SEQEND
  0
POLYLINE
  8
Unknown_Area_Type
  70
1
  66
1
  0
VERTEX
  8
Unknown_Area_Type
  10
555179.063
  20
4216697.173
  0
VERTEX
  8
Unknown_Area_Type
  10
555261.321
  20
4216697.173
  0
VERTEX
  8
Unknown_Area_Type
  10
555261.321
  20
4216602.469
  0
VERTEX
  8
Unknown_Area_Type
  10
555179.063
  20
4216602.469
  0
VERTEX
  8
Unknown_Area_Type
  10
555179.063
  20
4216697.173
  0
SEQEND
  8
Unknown_Area_Type
  0
INSERT
  8
FeatureAttribs
  2
FEATURE
  41
1
  42
1
  43
1
  50
0
  10
596117.349
  20
4216509.360
 66
1
  0
ATTRIB
  8
FeatureAttribs
 70
0
  1
culvert
  2
NAME
  10
596117.349
  20
4216509.360
 40
366.53038
  0
SEQEND
  0
POLYLINE
  8
Unknown_Area_Type
  70
1
  66
1
  0
VERTEX
  8
Unknown_Area_Type
  10
595945.899
  20
4216625.777
  0
VERTEX
  8
Unknown_Area_Type
  10
596288.799
  20
4216625.777
  0
VERTEX
  8
Unknown_Area_Type
  10
596288.799
  20
4216392.943
  0
VERTEX
  8
Unknown_Area_Type
  10
595945.899
  20
4216392.943
  0
VERTEX
  8
Unknown_Area_Type
  10
595945.899
  20
4216625.777
  0
SEQEND
  8
Unknown_Area_Type
  0
INSERT
  8
FeatureAttribs
  2
FEATURE
  41
1
  42
1
  43
1
  50
0
  10
598278.573
  20
4216718.198
 66
1
  0
ATTRIB
  8
FeatureAttribs
 70
0
  1
raise elevation
  2
NAME
  10
598278.573
  20
4216718.198
 40
366.53038
  0
SEQEND
  0
POLYLINE
  8
Unknown_Area_Type
  70
1
  66
1
  0
VERTEX
  8
Unknown_Area_Type
  10
598216.345
  20
4216794.999
  0
VERTEX
  8
Unknown_Area_Type
  10
598340.801
  20
4216794.999
  0
VERTEX
  8
Unknown_Area_Type
  10
598340.801
  20
4216641.396
  0
VERTEX
  8
Unknown_Area_Type
  10
598216.345
  20
4216641.396
  0
VERTEX
  8
Unknown_Area_Type
  10
598216.345
  20
4216794.999
  0
SEQEND
  8
Unknown_Area_Type
  0
INSERT
  8
FeatureAttribs
  2
FEATURE
  41
1
  42
1
  43
1
  50
0
  10
602702.379
  20
4216671.817
 66
1
  0
ATTRIB
  8
FeatureAttribs
 70
0
  1
raise elevation
  2
NAME
  10
602702.379
  20
4216671.817
 40
366.53038
  0
SEQEND
  0
POLYLINE
  8
Unknown_Area_Type
  70
1
  66
1
  0
VERTEX
  8
Unknown_Area_Type
  10
602629.290
  20
4216753.498
  0
VERTEX
  8
Unknown_Area_Type
  10
602775.468
  20
4216753.498
  0
VERTEX
  8
Unknown_Area_Type
  10
602775.468
  20
4216590.136
  0
VERTEX
  8
Unknown_Area_Type
  10
602629.290
  20
4216590.136
  0
VERTEX
  8
Unknown_Area_Type
  10
602629.290
  20
4216753.498
  0
SEQEND
  8
Unknown_Area_Type
  0
INSERT
  8
FeatureAttribs
  2
FEATURE
  41
1
  42
1
  43
1
  50
0
  10
599291.924
  20
4215748.231
 66
1
  0
ATTRIB
  8
FeatureAttribs
 70
0
  1
raise elevation
  2
NAME
  10
599291.924
  20
4215748.231
 40
366.53038
  0
SEQEND
  0
POLYLINE
  8
Unknown_Area_Type
  70
1
  66
1
  0
VERTEX
  8
Unknown_Area_Type
  10
599196.892
  20
4216037.748
  0
VERTEX
  8
Unknown_Area_Type
  10
599386.956
  20
4216037.748
  0
VERTEX
  8
Unknown_Area_Type
  10
599386.956
  20
4215458.715
  0
VERTEX
  8
Unknown_Area_Type
  10
599196.892
  20
4215458.715
  0
VERTEX
  8
Unknown_Area_Type
  10
599196.892
  20
4216037.748
  0
SEQEND
  8
Unknown_Area_Type
  0
INSERT
  8
FeatureAttribs
  2
FEATURE
  41
1
  42
1
  43
1
  50
0
  10
598699.999
  20
4215592.423
 66
1
  0
ATTRIB
  8
FeatureAttribs
 70
0
  1
raise elevation
  2
NAME
  10
598699.999
  20
4215592.423
 40
366.53038
  0
SEQEND
  0
POLYLINE
  8
Unknown_Area_Type
  70
1
  66
1
  0
VERTEX
  8
Unknown_Area_Type
  10
598590.602
  20
4215734.234
  0
VERTEX
  8
Unknown_Area_Type
  10
598809.397
  20
4215734.234
  0
VERTEX
  8
Unknown_Area_Type
  10
598809.397
  20
4215450.611
  0
VERTEX
  8
Unknown_Area_Type
  10
598590.602
  20
4215450.611
  0
VERTEX
  8
Unknown_Area_Type
  10
598590.602
  20
4215734.234
  0
SEQEND
  8
Unknown_Area_Type
  0
INSERT
  8
FeatureAttribs
  2
FEATURE
  41
1
  42
1
  43
1
  50
0
  10
598338.561
  20
4216063.652
 66
1
  0
ATTRIB
  8
FeatureAttribs
 70
0
  1
raise elevation
  2
NAME
  10
598338.561
  20
4216063.652
 40
366.53038
  0
SEQEND
  0
POLYLINE
  8
Unknown_Area_Type
  70
1
  66
1
  0
VERTEX
  8
Unknown_Area_Type
  10
598256.540
  20
4216138.918
  0
VERTEX
  8
Unknown_Area_Type
  10
598420.581
  20
4216138.918
  0
VERTEX
  8
Unknown_Area_Type
  10
598420.581
  20
4215988.386
  0
VERTEX
  8
Unknown_Area_Type
  10
598256.540
  20
4215988.386
  0
VERTEX
  8
Unknown_Area_Type
  10
598256.540
  20
4216138.918
  0
SEQEND
  8
Unknown_Area_Type
  0
INSERT
  8
FeatureAttribs
  2
FEATURE
  41
1
  42
1
  43
1
  50
0
  10
596488.824
  20
4215984.426
 66
1
  0
ATTRIB
  8
FeatureAttribs
 70
0
  1
culvert
  2
NAME
  10
596488.824
  20
4215984.426
 40
366.53038
  0
SEQEND
  0
POLYLINE
  8
Unknown_Area_Type
  70
1
  66
1
  0
VERTEX
  8
Unknown_Area_Type
  10
596198.841
  20
4216198.210
  0
VERTEX
  8
Unknown_Area_Type
  10
596778.807
  20
4216198.210
  0
VERTEX
  8
Unknown_Area_Type
  10
596778.807
  20
4215770.643
  0
VERTEX
  8
Unknown_Area_Type
  10
596198.841
  20
4215770.643
  0
VERTEX
  8
Unknown_Area_Type
  10
596198.841
  20
4216198.210
  0
SEQEND
  8
Unknown_Area_Type
  0
INSERT
  8
FeatureAttribs
  2
FEATURE
  41
1
  42
1
  43
1
  50
0
  10
592360.016
  20
4216163.978
 66
1
  0
ATTRIB
  8
FeatureAttribs
 70
0
  1
raise elevation
  2
NAME
  10
592360.016
  20
4216163.978
 40
366.53038
  0
SEQEND
  0
POLYLINE
  8
Unknown_Area_Type
  70
1
  66
1
  0
VERTEX
  8
Unknown_Area_Type
  10
592176.183
  20
4216258.097
  0
VERTEX
  8
Unknown_Area_Type
  10
592543.849
  20
4216258.097
  0
VERTEX
  8
Unknown_Area_Type
  10
592543.849
  20
4216069.859
  0
VERTEX
  8
Unknown_Area_Type
  10
592176.183
  20
4216069.859
  0
VERTEX
  8
Unknown_Area_Type
  10
592176.183
  20
4216258.097
  0
SEQEND
  8
Unknown_Area_Type
  0
INSERT
  8
FeatureAttribs
  2
FEATURE
  41
1
  42
1
  43
1
  50
0
  10
554681.737
  20
4216089.164
 66
1
  0
ATTRIB
  8
FeatureAttribs
 70
0
  1
raise elevation
  2
NAME
  10
554681.737
  20
4216089.164
 40
366.53038
  0
SEQEND
  0
POLYLINE
  8
Unknown_Area_Type
  70
1
  66
1
  0
VERTEX
  8
Unknown_Area_Type
  10
554600.158
  20
4216178.363
  0
VERTEX
  8
Unknown_Area_Type
  10
554763.316
  20
4216178.363
  0
VERTEX
  8
Unknown_Area_Type
  10
554763.316
  20
4215999.965
  0
VERTEX
  8
Unknown_Area_Type
  10
554600.158
  20
4215999.965
  0
VERTEX
  8
Unknown_Area_Type
  10
554600.158
  20
4216178.363
  0
SEQEND
  8
Unknown_Area_Type
  0
INSERT
  8
FeatureAttribs
  2
FEATURE
  41
1
  42
1
  43
1
  50
0
  10
545477.527
  20
4211519.936
 66
1
  0
ATTRIB
  8
FeatureAttribs
 70
0
  1
raise elevation
  2
NAME
  10
545477.527
  20
4211519.936
 40
366.53038
  0
SEQEND
  0
POLYLINE
  8
Unknown_Area_Type
  70
1
  66
1
  0
VERTEX
  8
Unknown_Area_Type
  10
545034.072
  20
4211758.380
  0
VERTEX
  8
Unknown_Area_Type
  10
545920.981
  20
4211758.380
  0
VERTEX
  8
Unknown_Area_Type
  10
545920.981
  20
4211281.491
  0
VERTEX
  8
Unknown_Area_Type
  10
545034.072
  20
4211281.491
  0
VERTEX
  8
Unknown_Area_Type
  10
545034.072
  20
4211758.380
  0
SEQEND
  8
Unknown_Area_Type
  0
INSERT
  8
FeatureAttribs
  2
FEATURE
  41
1
  42
1
  43
1
  50
0
  10
600799.028
  20
4185438.231
 66
1
  0
ATTRIB
  8
FeatureAttribs
 70
0
  1
raise elevation
  2
NAME
  10
600799.028
  20
4185438.231
 40
366.53038
  0
SEQEND
  0
POLYLINE
  8
Unknown_Area_Type
  70
1
  66
1
  0
VERTEX
  8
Unknown_Area_Type
  10
600653.493
  20
4185581.722
  0
VERTEX
  8
Unknown_Area_Type
  10
600944.563
  20
4185581.722
  0
VERTEX
  8
Unknown_Area_Type
  10
600944.563
  20
4185294.739
  0
VERTEX
  8
Unknown_Area_Type
  10
600653.493
  20
4185294.739
  0
VERTEX
  8
Unknown_Area_Type
  10
600653.493
  20
4185581.722
  0
SEQEND
  8
Unknown_Area_Type
  0
INSERT
  8
FeatureAttribs
  2
FEATURE
  41
1
  42
1
  43
1
  50
0
  10
597889.781
  20
4177203.530
 66
1
  0
ATTRIB
  8
FeatureAttribs
 70
0
  1
raise elevation
  2
NAME
  10
597889.781
  20
4177203.530
 40
366.53038
  0
SEQEND
  0
POLYLINE
  8
Unknown_Area_Type
  70
1
  66
1
  0
VERTEX
  8
Unknown_Area_Type
  10
597800.290
  20
4177279.419
  0
VERTEX
  8
Unknown_Area_Type
  10
597979.273
  20
4177279.419
  0
VERTEX
  8
Unknown_Area_Type
  10
597979.273
  20
4177127.641
  0
VERTEX
  8
Unknown_Area_Type
  10
597800.290
  20
4177127.641
  0
VERTEX
  8
Unknown_Area_Type
  10
597800.290
  20
4177279.419
  0
SEQEND
  8
Unknown_Area_Type
  0
INSERT
  8
FeatureAttribs
  2
FEATURE
  41
1
  42
1
  43
1
  50
0
  10
581514.034
  20
4172613.362
 66
1
  0
ATTRIB
  8
FeatureAttribs
 70
0
  1
raise elevation
  2
NAME
  10
581514.034
  20
4172613.362
 40
366.53038
  0
SEQEND
  0
POLYLINE
  8
Unknown_Area_Type
  70
1
  66
1
  0
VERTEX
  8
Unknown_Area_Type
  10
581339.835
  20
4172395.189
  0
VERTEX
  8
Unknown_Area_Type
  10
581339.835
  20
4172831.534
  0
VERTEX
  8
Unknown_Area_Type
  10
581688.234
  20
4172831.534
  0
VERTEX
  8
Unknown_Area_Type
  10
581688.234
  20
4172395.189
  0
VERTEX
  8
Unknown_Area_Type
  10
581339.835
  20
4172395.189
  0
SEQEND
  8
Unknown_Area_Type
  0
INSERT
  8
FeatureAttribs
  2
FEATURE
  41
1
  42
1
  43
1
  50
0
  10
589760.971
  20
4172380.665
 66
1
  0
ATTRIB
  8
FeatureAttribs
 70
0
  1
raise elevation
  2
NAME
  10
589760.971
  20
4172380.665
 40
366.53038
  0
SEQEND
  0
POLYLINE
  8
Unknown_Area_Type
  70
1
  66
1
  0
VERTEX
  8
Unknown_Area_Type
  10
589599.533
  20
4172464.532
  0
VERTEX
  8
Unknown_Area_Type
  10
589922.409
  20
4172464.532
  0
VERTEX
  8
Unknown_Area_Type
  10
589922.409
  20
4172296.799
  0
VERTEX
  8
Unknown_Area_Type
  10
589599.533
  20
4172296.799
  0
VERTEX
  8
Unknown_Area_Type
  10
589599.533
  20
4172464.532
  0
SEQEND
  8
Unknown_Area_Type
  0
INSERT
  8
FeatureAttribs
  2
FEATURE
  41
1
  42
1
  43
1
  50
0
  10
595561.942
  20
4169025.277
 66
1
  0
ATTRIB
  8
FeatureAttribs
 70
0
  1
raise elevation
  2
NAME
  10
595561.942
  20
4169025.277
 40
366.53038
  0
SEQEND
  0
POLYLINE
  8
Unknown_Area_Type
  70
1
  66
1
  0
VERTEX
  8
Unknown_Area_Type
  10
595409.349
  20
4169127.797
  0
VERTEX
  8
Unknown_Area_Type
  10
595714.535
  20
4169127.797
  0
VERTEX
  8
Unknown_Area_Type
  10
595714.535
  20
4168922.758
  0
VERTEX
  8
Unknown_Area_Type
  10
595409.349
  20
4168922.758
  0
VERTEX
  8
Unknown_Area_Type
  10
595409.349
  20
4169127.797
  0
SEQEND
  8
Unknown_Area_Type
  0
INSERT
  8
FeatureAttribs
  2
FEATURE
  41
1
  42
1
  43
1
  50
0
  10
564753.036
  20
4160942.637
 66
1
  0
ATTRIB
  8
FeatureAttribs
 70
0
  1
raise elevation
  2
NAME
  10
564753.036
  20
4160942.637
 40
366.53038
  0
SEQEND
  0
POLYLINE
  8
Unknown_Area_Type
  70
1
  66
1
  0
VERTEX
  8
Unknown_Area_Type
  10
564564.966
  20
4161132.483
  0
VERTEX
  8
Unknown_Area_Type
  10
564941.106
  20
4161132.483
  0
VERTEX
  8
Unknown_Area_Type
  10
564941.106
  20
4160752.790
  0
VERTEX
  8
Unknown_Area_Type
  10
564564.966
  20
4160752.790
  0
VERTEX
  8
Unknown_Area_Type
  10
564564.966
  20
4161132.483
  0
SEQEND
  8
Unknown_Area_Type
  0
INSERT
  8
FeatureAttribs
  2
FEATURE
  41
1
  42
1
  43
1
  50
0
  10
586673.944
  20
4151605.881
 66
1
  0
ATTRIB
  8
FeatureAttribs
 70
0
  1
raise elevation
  2
NAME
  10
586673.944
  20
4151605.881
 40
366.53038
  0
SEQEND
  0
POLYLINE
  8
Unknown_Area_Type
  70
1
  66
1
  0
VERTEX
  8
Unknown_Area_Type
  10
586515.194
  20
4151810.139
  0
VERTEX
  8
Unknown_Area_Type
  10
586832.694
  20
4151810.139
  0
VERTEX
  8
Unknown_Area_Type
  10
586832.694
  20
4151401.623
  0
VERTEX
  8
Unknown_Area_Type
  10
586515.194
  20
4151401.623
  0
VERTEX
  8
Unknown_Area_Type
  10
586515.194
  20
4151810.139
  0
SEQEND
  8
Unknown_Area_Type
  0
INSERT
  8
FeatureAttribs
  2
FEATURE
  41
1
  42
1
  43
1
  50
0
  10
586967.636
  20
4151123.943
 66
1
  0
ATTRIB
  8
FeatureAttribs
 70
0
  1
raise elevation
  2
NAME
  10
586967.636
  20
4151123.943
 40
366.53038
  0
SEQEND
  0
POLYLINE
  8
Unknown_Area_Type
  70
1
  66
1
  0
VERTEX
  8
Unknown_Area_Type
  10
586855.452
  20
4151221.310
  0
VERTEX
  8
Unknown_Area_Type
  10
587079.819
  20
4151221.310
  0
VERTEX
  8
Unknown_Area_Type
  10
587079.819
  20
4151026.576
  0
VERTEX
  8
Unknown_Area_Type
  10
586855.452
  20
4151026.576
  0
VERTEX
  8
Unknown_Area_Type
  10
586855.452
  20
4151221.310
  0
SEQEND
  8
Unknown_Area_Type
  0
INSERT
  8
FeatureAttribs
  2
FEATURE
  41
1
  42
1
  43
1
  50
0
  10
585199.147
  20
4152835.177
 66
1
  0
ATTRIB
  8
FeatureAttribs
 70
0
  1
raise elevation
  2
NAME
  10
585199.147
  20
4152835.177
 40
366.53038
  0
SEQEND
  0
POLYLINE
  8
Unknown_Area_Type
  70
1
  66
1
  0
VERTEX
  8
Unknown_Area_Type
  10
585434.500
  20
4152578.555
  0
VERTEX
  8
Unknown_Area_Type
  10
584963.794
  20
4152578.555
  0
VERTEX
  8
Unknown_Area_Type
  10
584963.794
  20
4153091.799
  0
VERTEX
  8
Unknown_Area_Type
  10
585434.500
  20
4153091.799
  0
VERTEX
  8
Unknown_Area_Type
  10
585434.500
  20
4152578.555
  0
SEQEND
  8
Unknown_Area_Type
  0
INSERT
  8
FeatureAttribs
  2
FEATURE
  41
1
  42
1
  43
1
  50
0
  10
564349.715
  20
4149927.682
 66
1
  0
ATTRIB
  8
FeatureAttribs
 70
0
  1
raise elevation
  2
NAME
  10
564349.715
  20
4149927.682
 40
366.53038
  0
SEQEND
  0
POLYLINE
  8
Unknown_Area_Type
  70
1
  66
1
  0
VERTEX
  8
Unknown_Area_Type
  10
564217.019
  20
4150056.165
  0
VERTEX
  8
Unknown_Area_Type
  10
564482.411
  20
4150056.165
  0
VERTEX
  8
Unknown_Area_Type
  10
564482.411
  20
4149799.198
  0
VERTEX
  8
Unknown_Area_Type
  10
564217.019
  20
4149799.198
  0
VERTEX
  8
Unknown_Area_Type
  10
564217.019
  20
4150056.165
  0
SEQEND
  8
Unknown_Area_Type
  0
INSERT
  8
FeatureAttribs
  2
FEATURE
  41
1
  42
1
  43
1
  50
0
  10
572421.384
  20
4151028.976
 66
1
  0
ATTRIB
  8
FeatureAttribs
 70
0
  1
raise elevation
  2
NAME
  10
572421.384
  20
4151028.976
 40
366.53038
  0
SEQEND
  0
POLYLINE
  8
Unknown_Area_Type
  70
1
  66
1
  0
VERTEX
  8
Unknown_Area_Type
  10
572325.713
  20
4151100.552
  0
VERTEX
  8
Unknown_Area_Type
  10
572517.054
  20
4151100.552
  0
VERTEX
  8
Unknown_Area_Type
  10
572517.054
  20
4150957.401
  0
VERTEX
  8
Unknown_Area_Type
  10
572325.713
  20
4150957.401
  0
VERTEX
  8
Unknown_Area_Type
  10
572325.713
  20
4151100.552
  0
SEQEND
  8
Unknown_Area_Type
  0
INSERT
  8
FeatureAttribs
  2
FEATURE
  41
1
  42
1
  43
1
  50
0
  10
590136.245
  20
4149247.350
 66
1
  0
ATTRIB
  8
FeatureAttribs
 70
0
  1
raise elevation
  2
NAME
  10
590136.245
  20
4149247.350
 40
366.53038
  0
SEQEND
  0
POLYLINE
  8
Unknown_Area_Type
  70
1
  66
1
  0
VERTEX
  8
Unknown_Area_Type
  10
590032.529
  20
4149336.250
  0
VERTEX
  8
Unknown_Area_Type
  10
590239.962
  20
4149336.250
  0
VERTEX
  8
Unknown_Area_Type
  10
590239.962
  20
4149158.450
  0
VERTEX
  8
Unknown_Area_Type
  10
590032.529
  20
4149158.450
  0
VERTEX
  8
Unknown_Area_Type
  10
590032.529
  20
4149336.250
  0
SEQEND
  8
Unknown_Area_Type
  0
INSERT
  8
FeatureAttribs
  2
FEATURE
  41
1
  42
1
  43
1
  50
0
  10
590216.679
  20
4149537.333
 66
1
  0
ATTRIB
  8
FeatureAttribs
 70
0
  1
raise elevation
  2
NAME
  10
590216.679
  20
4149537.333
 40
366.53038
  0
SEQEND
  0
POLYLINE
  8
Unknown_Area_Type
  70
1
  66
1
  0
VERTEX
  8
Unknown_Area_Type
  10
590125.662
  20
4149626.233
  0
VERTEX
  8
Unknown_Area_Type
  10
590307.695
  20
4149626.233
  0
VERTEX
  8
Unknown_Area_Type
  10
590307.695
  20
4149448.433
  0
VERTEX
  8
Unknown_Area_Type
  10
590125.662
  20
4149448.433
  0
VERTEX
  8
Unknown_Area_Type
  10
590125.662
  20
4149626.233
  0
SEQEND
  8
Unknown_Area_Type
  0
INSERT
  8
FeatureAttribs
  2
FEATURE
  41
1
  42
1
  43
1
  50
0
  10
590144.251
  20
4147893.044
 66
1
  0
ATTRIB
  8
FeatureAttribs
 70
0
  1
raise elevation
  2
NAME
  10
590144.251
  20
4147893.044
 40
366.53038
  0
SEQEND
  0
POLYLINE
  8
Unknown_Area_Type
  70
1
  66
1
  0
VERTEX
  8
Unknown_Area_Type
  10
590049.462
  20
4147830.329
  0
VERTEX
  8
Unknown_Area_Type
  10
590049.462
  20
4147955.760
  0
VERTEX
  8
Unknown_Area_Type
  10
590239.041
  20
4147955.760
  0
VERTEX
  8
Unknown_Area_Type
  10
590239.041
  20
4147830.329
  0
VERTEX
  8
Unknown_Area_Type
  10
590049.462
  20
4147830.329
  0
SEQEND
  8
Unknown_Area_Type
  0
INSERT
  8
FeatureAttribs
  2
FEATURE
  41
1
  42
1
  43
1
  50
0
  10
589893.015
  20
4148886.688
 66
1
  0
ATTRIB
  8
FeatureAttribs
 70
0
  1
raise elevation
  2
NAME
  10
589893.015
  20
4148886.688
 40
366.53038
  0
SEQEND
  0
POLYLINE
  8
Unknown_Area_Type
  70
1
  66
1
  0
VERTEX
  8
Unknown_Area_Type
  10
589775.764
  20
4149042.569
  0
VERTEX
  8
Unknown_Area_Type
  10
590010.266
  20
4149042.569
  0
VERTEX
  8
Unknown_Area_Type
  10
590010.266
  20
4148730.808
  0
VERTEX
  8
Unknown_Area_Type
  10
589775.764
  20
4148730.808
  0
VERTEX
  8
Unknown_Area_Type
  10
589775.764
  20
4149042.569
  0
SEQEND
  8
Unknown_Area_Type
  0
INSERT
  8
FeatureAttribs
  2
FEATURE
  41
1
  42
1
  43
1
  50
0
  10
589646.243
  20
4148901.231
 66
1
  0
ATTRIB
  8
FeatureAttribs
 70
0
  1
raise elevation
  2
NAME
  10
589646.243
  20
4148901.231
 40
366.53038
  0
SEQEND
  0
POLYLINE
  8
Unknown_Area_Type
  70
1
  66
1
  0
VERTEX
  8
Unknown_Area_Type
  10
589571.257
  20
4148757.167
  0
VERTEX
  8
Unknown_Area_Type
  10
589571.257
  20
4149045.295
  0
VERTEX
  8
Unknown_Area_Type
  10
589721.229
  20
4149045.295
  0
VERTEX
  8
Unknown_Area_Type
  10
589721.229
  20
4148757.167
  0
VERTEX
  8
Unknown_Area_Type
  10
589571.257
  20
4148757.167
  0
SEQEND
  8
Unknown_Area_Type
  0
INSERT
  8
FeatureAttribs
  2
FEATURE
  41
1
  42
1
  43
1
  50
0
  10
589911.648
  20
4148347.698
 66
1
  0
ATTRIB
  8
FeatureAttribs
 70
0
  1
raise elevation
  2
NAME
  10
589911.648
  20
4148347.698
 40
366.53038
  0
SEQEND
  0
POLYLINE
  8
Unknown_Area_Type
  70
1
  66
1
  0
VERTEX
  8
Unknown_Area_Type
  10
589791.216
  20
4148439.045
  0
VERTEX
  8
Unknown_Area_Type
  10
590032.080
  20
4148439.045
  0
VERTEX
  8
Unknown_Area_Type
  10
590032.080
  20
4148256.351
  0
VERTEX
  8
Unknown_Area_Type
  10
589791.216
  20
4148256.351
  0
VERTEX
  8
Unknown_Area_Type
  10
589791.216
  20
4148439.045
  0
SEQEND
  8
Unknown_Area_Type
  0
INSERT
  8
FeatureAttribs
  2
FEATURE
  41
1
  42
1
  43
1
  50
0
  10
567658.714
  20
4147485.503
 66
1
  0
ATTRIB
  8
FeatureAttribs
 70
0
  1
raise elevation
  2
NAME
  10
567658.714
  20
4147485.503
 40
366.53038
  0
SEQEND
  0
POLYLINE
  8
Unknown_Area_Type
  70
1
  66
1
  0
VERTEX
  8
Unknown_Area_Type
  10
567552.761
  20
4147550.580
  0
VERTEX
  8
Unknown_Area_Type
  10
567764.668
  20
4147550.580
  0
VERTEX
  8
Unknown_Area_Type
  10
567764.668
  20
4147420.426
  0
VERTEX
  8
Unknown_Area_Type
  10
567552.761
  20
4147420.426
  0
VERTEX
  8
Unknown_Area_Type
  10
567552.761
  20
4147550.580
  0
SEQEND
  8
Unknown_Area_Type
  0
INSERT
  8
FeatureAttribs
  2
FEATURE
  41
1
  42
1
  43
1
  50
0
  10
600433.555
  20
4143580.137
 66
1
  0
ATTRIB
  8
FeatureAttribs
 70
0
  1
raise elevation
  2
NAME
  10
600433.555
  20
4143580.137
 40
366.53038
  0
SEQEND
  0
POLYLINE
  8
Unknown_Area_Type
  70
1
  66
1
  0
VERTEX
  8
Unknown_Area_Type
  10
600325.654
  20
4143466.484
  0
VERTEX
  8
Unknown_Area_Type
  10
600325.654
  20
4143693.789
  0
VERTEX
  8
Unknown_Area_Type
  10
600541.455
  20
4143693.789
  0
VERTEX
  8
Unknown_Area_Type
  10
600541.455
  20
4143466.484
  0
VERTEX
  8
Unknown_Area_Type
  10
600325.654
  20
4143466.484
  0
SEQEND
  8
Unknown_Area_Type
  0
INSERT
  8
FeatureAttribs
  2
FEATURE
  41
1
  42
1
  43
1
  50
0
  10
579876.286
  20
4142738.405
 66
1
  0
ATTRIB
  8
FeatureAttribs
 70
0
  1
culvert
  2
NAME
  10
579876.286
  20
4142738.405
 40
366.53038
  0
SEQEND
  0
POLYLINE
  8
Unknown_Area_Type
  70
1
  66
1
  0
VERTEX
  8
Unknown_Area_Type
  10
579795.559
  20
4142804.694
  0
VERTEX
  8
Unknown_Area_Type
  10
579957.013
  20
4142804.694
  0
VERTEX
  8
Unknown_Area_Type
  10
579957.013
  20
4142672.116
  0
VERTEX
  8
Unknown_Area_Type
  10
579795.559
  20
4142672.116
  0
VERTEX
  8
Unknown_Area_Type
  10
579795.559
  20
4142804.694
  0
SEQEND
  8
Unknown_Area_Type
  0
INSERT
  8
FeatureAttribs
  2
FEATURE
  41
1
  42
1
  43
1
  50
0
  10
605388.945
  20
4135431.866
 66
1
  0
ATTRIB
  8
FeatureAttribs
 70
0
  1
raise elevation
  2
NAME
  10
605388.945
  20
4135431.866
 40
366.53038
  0
SEQEND
  0
POLYLINE
  8
Unknown_Area_Type
  70
1
  66
1
  0
VERTEX
  8
Unknown_Area_Type
  10
605273.587
  20
4135569.450
  0
VERTEX
  8
Unknown_Area_Type
  10
605504.304
  20
4135569.450
  0
VERTEX
  8
Unknown_Area_Type
  10
605504.304
  20
4135294.283
  0
VERTEX
  8
Unknown_Area_Type
  10
605273.587
  20
4135294.283
  0
VERTEX
  8
Unknown_Area_Type
  10
605273.587
  20
4135569.450
  0
SEQEND
  8
Unknown_Area_Type
  0
INSERT
  8
FeatureAttribs
  2
FEATURE
  41
1
  42
1
  43
1
  50
0
  10
604369.770
  20
4136320.866
 66
1
  0
ATTRIB
  8
FeatureAttribs
 70
0
  1
raise elevation
  2
NAME
  10
604369.770
  20
4136320.866
 40
366.53038
  0
SEQEND
  0
POLYLINE
  8
Unknown_Area_Type
  70
1
  66
1
  0
VERTEX
  8
Unknown_Area_Type
  10
604206.787
  20
4136490.200
  0
VERTEX
  8
Unknown_Area_Type
  10
604532.754
  20
4136490.200
  0
VERTEX
  8
Unknown_Area_Type
  10
604532.754
  20
4136151.533
  0
VERTEX
  8
Unknown_Area_Type
  10
604206.787
  20
4136151.533
  0
VERTEX
  8
Unknown_Area_Type
  10
604206.787
  20
4136490.200
  0
SEQEND
  8
Unknown_Area_Type
  0
INSERT
  8
FeatureAttribs
  2
FEATURE
  41
1
  42
1
  43
1
  50
0
  10
603374.937
  20
4135330.266
 66
1
  0
ATTRIB
  8
FeatureAttribs
 70
0
  1
raise elevation
  2
NAME
  10
603374.937
  20
4135330.266
 40
366.53038
  0
SEQEND
  0
POLYLINE
  8
Unknown_Area_Type
  70
1
  66
1
  0
VERTEX
  8
Unknown_Area_Type
  10
603260.637
  20
4135440.333
  0
VERTEX
  8
Unknown_Area_Type
  10
603489.237
  20
4135440.333
  0
VERTEX
  8
Unknown_Area_Type
  10
603489.237
  20
4135220.200
  0
VERTEX
  8
Unknown_Area_Type
  10
603260.637
  20
4135220.200
  0
VERTEX
  8
Unknown_Area_Type
  10
603260.637
  20
4135440.333
  0
SEQEND
  8
Unknown_Area_Type
  0
INSERT
  8
FeatureAttribs
  2
FEATURE
  41
1
  42
1
  43
1
  50
0
  10
502915.473
  20
4203217.900
 66
1
  0
ATTRIB
  8
FeatureAttribs
 70
0
  1
raise elevation
  2
NAME
  10
502915.473
  20
4203217.900
 40
366.53038
  0
SEQEND
  0
POLYLINE
  8
Unknown_Area_Type
  70
1
  66
1
  0
VERTEX
  8
Unknown_Area_Type
  10
502794.823
  20
4203347.017
  0
VERTEX
  8
Unknown_Area_Type
  10
503036.123
  20
4203347.017
  0
VERTEX
  8
Unknown_Area_Type
  10
503036.123
  20
4203088.783
  0
VERTEX
  8
Unknown_Area_Type
  10
502794.823
  20
4203088.783
  0
VERTEX
  8
Unknown_Area_Type
  10
502794.823
  20
4203347.017
  0
SEQEND
  8
Unknown_Area_Type
  0
INSERT
  8
FeatureAttribs
  2
FEATURE
  41
1
  42
1
  43
1
  50
0
  10
502648.793
  20
4202737.022
 66
1
  0
ATTRIB
  8
FeatureAttribs
 70
0
  1
raise elevation
  2
NAME
  10
502648.793
  20
4202737.022
 40
366.53038
  0
SEQEND
  0
POLYLINE
  8
Unknown_Area_Type
  70
1
  66
1
  0
VERTEX
  8
Unknown_Area_Type
  10
502578.518
  20
4202818.425
  0
VERTEX
  8
Unknown_Area_Type
  10
502719.068
  20
4202818.425
  0
VERTEX
  8
Unknown_Area_Type
  10
502719.068
  20
4202655.618
  0
VERTEX
  8
Unknown_Area_Type
  10
502578.518
  20
4202655.618
  0
VERTEX
  8
Unknown_Area_Type
  10
502578.518
  20
4202818.425
  0
SEQEND
  8
Unknown_Area_Type
  0
INSERT
  8
FeatureAttribs
  2
FEATURE
  41
1
  42
1
  43
1
  50
0
  10
535782.015
  20
4200899.092
 66
1
  0
ATTRIB
  8
FeatureAttribs
 70
0
  1
culvert
  2
NAME
  10
535782.015
  20
4200899.092
 40
366.53038
  0
SEQEND
  0
POLYLINE
  8
Unknown_Area_Type
  70
1
  66
1
  0
VERTEX
  8
Unknown_Area_Type
  10
535658.190
  20
4201018.683
  0
VERTEX
  8
Unknown_Area_Type
  10
535905.840
  20
4201018.683
  0
VERTEX
  8
Unknown_Area_Type
  10
535905.840
  20
4200779.500
  0
VERTEX
  8
Unknown_Area_Type
  10
535658.190
  20
4200779.500
  0
VERTEX
  8
Unknown_Area_Type
  10
535658.190
  20
4201018.683
  0
SEQEND
  8
Unknown_Area_Type
  0
INSERT
  8
FeatureAttribs
  2
FEATURE
  41
1
  42
1
  43
1
  50
0
  10
532430.832
  20
4175806.062
 66
1
  0
ATTRIB
  8
FeatureAttribs
 70
0
  1
culvert on road
  2
NAME
  10
532430.832
  20
4175806.062
 40
366.53038
  0
SEQEND
  0
POLYLINE
  8
Unknown_Area_Type
  70
1
  66
1
  0
VERTEX
  8
Unknown_Area_Type
  10
532298.113
  20
4175899.213
  0
VERTEX
  8
Unknown_Area_Type
  10
532563.550
  20
4175899.213
  0
VERTEX
  8
Unknown_Area_Type
  10
532563.550
  20
4175712.912
  0
VERTEX
  8
Unknown_Area_Type
  10
532298.113
  20
4175712.912
  0
VERTEX
  8
Unknown_Area_Type
  10
532298.113
  20
4175899.213
  0
SEQEND
  8
Unknown_Area_Type
  0
INSERT
  8
FeatureAttribs
  2
FEATURE
  41
1
  42
1
  43
1
  50
0
  10
532445.655
  20
4173968.803
 66
1
  0
ATTRIB
  8
FeatureAttribs
 70
0
  1
raise elevation
  2
NAME
  10
532445.655
  20
4173968.803
 40
366.53038
  0
SEQEND
  0
POLYLINE
  8
Unknown_Area_Type
  70
1
  66
1
  0
VERTEX
  8
Unknown_Area_Type
  10
532225.955
  20
4174175.142
  0
VERTEX
  8
Unknown_Area_Type
  10
532665.354
  20
4174175.142
  0
VERTEX
  8
Unknown_Area_Type
  10
532665.354
  20
4173762.463
  0
VERTEX
  8
Unknown_Area_Type
  10
532225.955
  20
4173762.463
  0
VERTEX
  8
Unknown_Area_Type
  10
532225.955
  20
4174175.142
  0
SEQEND
  8
Unknown_Area_Type
  0
INSERT
  8
FeatureAttribs
  2
FEATURE
  41
1
  42
1
  43
1
  50
0
  10
530802.771
  20
4170958.160
 66
1
  0
ATTRIB
  8
FeatureAttribs
 70
0
  1
raise elevation
  2
NAME
  10
530802.771
  20
4170958.160
 40
366.53038
  0
SEQEND
  0
POLYLINE
  8
Unknown_Area_Type
  70
1
  66
1
  0
VERTEX
  8
Unknown_Area_Type
  10
530702.899
  20
4171060.995
  0
VERTEX
  8
Unknown_Area_Type
  10
530902.644
  20
4171060.995
  0
VERTEX
  8
Unknown_Area_Type
  10
530902.644
  20
4170855.326
  0
VERTEX
  8
Unknown_Area_Type
  10
530702.899
  20
4170855.326
  0
VERTEX
  8
Unknown_Area_Type
  10
530702.899
  20
4171060.995
  0
SEQEND
  8
Unknown_Area_Type
  0
INSERT
  8
FeatureAttribs
  2
FEATURE
  41
1
  42
1
  43
1
  50
0
  10
495913.956
  20
4170034.990
 66
1
  0
ATTRIB
  8
FeatureAttribs
 70
0
  1
raise elevation
  2
NAME
  10
495913.956
  20
4170034.990
 40
366.53038
  0
SEQEND
  0
POLYLINE
  8
Unknown_Area_Type
  70
1
  66
1
  0
VERTEX
  8
Unknown_Area_Type
  10
495555.445
  20
4170548.898
  0
VERTEX
  8
Unknown_Area_Type
  10
496272.467
  20
4170548.898
  0
VERTEX
  8
Unknown_Area_Type
  10
496272.467
  20
4169521.082
  0
VERTEX
  8
Unknown_Area_Type
  10
495555.445
  20
4169521.082
  0
VERTEX
  8
Unknown_Area_Type
  10
495555.445
  20
4170548.898
  0
SEQEND
  8
Unknown_Area_Type
  0
INSERT
  8
FeatureAttribs
  2
FEATURE
  41
1
  42
1
  43
1
  50
0
  10
519536.521
  20
4168267.169
 66
1
  0
ATTRIB
  8
FeatureAttribs
 70
0
  1
raise elevation
  2
NAME
  10
519536.521
  20
4168267.169
 40
366.53038
  0
SEQEND
  0
POLYLINE
  8
Unknown_Area_Type
  70
1
  66
1
  0
VERTEX
  8
Unknown_Area_Type
  10
519461.740
  20
4168335.608
  0
VERTEX
  8
Unknown_Area_Type
  10
519611.303
  20
4168335.608
  0
VERTEX
  8
Unknown_Area_Type
  10
519611.303
  20
4168198.730
  0
VERTEX
  8
Unknown_Area_Type
  10
519461.740
  20
4168198.730
  0
VERTEX
  8
Unknown_Area_Type
  10
519461.740
  20
4168335.608
  0
SEQEND
  8
Unknown_Area_Type
  0
INSERT
  8
FeatureAttribs
  2
FEATURE
  41
1
  42
1
  43
1
  50
0
  10
530704.941
  20
4170133.405
 66
1
  0
ATTRIB
  8
FeatureAttribs
 70
0
  1
raise elevation
  2
NAME
  10
530704.941
  20
4170133.405
 40
366.53038
  0
SEQEND
  0
POLYLINE
  8
Unknown_Area_Type
  70
1
  66
1
  0
VERTEX
  8
Unknown_Area_Type
  10
530579.794
  20
4170239.658
  0
VERTEX
  8
Unknown_Area_Type
  10
530830.087
  20
4170239.658
  0
VERTEX
  8
Unknown_Area_Type
  10
530830.087
  20
4170027.151
  0
VERTEX
  8
Unknown_Area_Type
  10
530579.794
  20
4170027.151
  0
VERTEX
  8
Unknown_Area_Type
  10
530579.794
  20
4170239.658
  0
SEQEND
  8
Unknown_Area_Type
  0
INSERT
  8
FeatureAttribs
  2
FEATURE
  41
1
  42
1
  43
1
  50
0
  10
520933.263
  20
4167757.415
 66
1
  0
ATTRIB
  8
FeatureAttribs
 70
0
  1
raise elevation
  2
NAME
  10
520933.263
  20
4167757.415
 40
366.53038
  0
SEQEND
  0
POLYLINE
  8
Unknown_Area_Type
  70
1
  66
1
  0
VERTEX
  8
Unknown_Area_Type
  10
520772.510
  20
4167873.292
  0
VERTEX
  8
Unknown_Area_Type
  10
521094.016
  20
4167873.292
  0
VERTEX
  8
Unknown_Area_Type
  10
521094.016
  20
4167641.537
  0
VERTEX
  8
Unknown_Area_Type
  10
520772.510
  20
4167641.537
  0
VERTEX
  8
Unknown_Area_Type
  10
520772.510
  20
4167873.292
  0
SEQEND
  8
Unknown_Area_Type
  0
INSERT
  8
FeatureAttribs
  2
FEATURE
  41
1
  42
1
  43
1
  50
0
  10
497579.475
  20
4165689.142
 66
1
  0
ATTRIB
  8
FeatureAttribs
 70
0
  1
raise elevation
  2
NAME
  10
497579.475
  20
4165689.142
 40
366.53038
  0
SEQEND
  0
POLYLINE
  8
Unknown_Area_Type
  70
1
  66
1
  0
VERTEX
  8
Unknown_Area_Type
  10
497381.223
  20
4165888.352
  0
VERTEX
  8
Unknown_Area_Type
  10
497777.727
  20
4165888.352
  0
VERTEX
  8
Unknown_Area_Type
  10
497777.727
  20
4165489.932
  0
VERTEX
  8
Unknown_Area_Type
  10
497381.223
  20
4165489.932
  0
VERTEX
  8
Unknown_Area_Type
  10
497381.223
  20
4165888.352
  0
SEQEND
  8
Unknown_Area_Type
  0
INSERT
  8
FeatureAttribs
  2
FEATURE
  41
1
  42
1
  43
1
  50
0
  10
518213.695
  20
4165591.931
 66
1
  0
ATTRIB
  8
FeatureAttribs
 70
0
  1
raise elevation
  2
NAME
  10
518213.695
  20
4165591.931
 40
366.53038
  0
SEQEND
  0
POLYLINE
  8
Unknown_Area_Type
  70
1
  66
1
  0
VERTEX
  8
Unknown_Area_Type
  10
518061.258
  20
4165722.148
  0
VERTEX
  8
Unknown_Area_Type
  10
518366.131
  20
4165722.148
  0
VERTEX
  8
Unknown_Area_Type
  10
518366.131
  20
4165461.715
  0
VERTEX
  8
Unknown_Area_Type
  10
518061.258
  20
4165461.715
  0
VERTEX
  8
Unknown_Area_Type
  10
518061.258
  20
4165722.148
  0
SEQEND
  8
Unknown_Area_Type
  0
INSERT
  8
FeatureAttribs
  2
FEATURE
  41
1
  42
1
  43
1
  50
0
  10
523165.864
  20
4165070.610
 66
1
  0
ATTRIB
  8
FeatureAttribs
 70
0
  1
raise elevation
  2
NAME
  10
523165.864
  20
4165070.610
 40
366.53038
  0
SEQEND
  0
POLYLINE
  8
Unknown_Area_Type
  70
1
  66
1
  0
VERTEX
  8
Unknown_Area_Type
  10
522933.013
  20
4165224.765
  0
VERTEX
  8
Unknown_Area_Type
  10
523398.715
  20
4165224.765
  0
VERTEX
  8
Unknown_Area_Type
  10
523398.715
  20
4164916.454
  0
VERTEX
  8
Unknown_Area_Type
  10
522933.013
  20
4164916.454
  0
VERTEX
  8
Unknown_Area_Type
  10
522933.013
  20
4165224.765
  0
SEQEND
  8
Unknown_Area_Type
  0
INSERT
  8
FeatureAttribs
  2
FEATURE
  41
1
  42
1
  43
1
  50
0
  10
523707.026
  20
4165287.290
 66
1
  0
ATTRIB
  8
FeatureAttribs
 70
0
  1
raise elevation
  2
NAME
  10
523707.026
  20
4165287.290
 40
366.53038
  0
SEQEND
  0
POLYLINE
  8
Unknown_Area_Type
  70
1
  66
1
  0
VERTEX
  8
Unknown_Area_Type
  10
523396.559
  20
4165548.169
  0
VERTEX
  8
Unknown_Area_Type
  10
524017.494
  20
4165548.169
  0
VERTEX
  8
Unknown_Area_Type
  10
524017.494
  20
4165026.411
  0
VERTEX
  8
Unknown_Area_Type
  10
523396.559
  20
4165026.411
  0
VERTEX
  8
Unknown_Area_Type
  10
523396.559
  20
4165548.169
  0
SEQEND
  8
Unknown_Area_Type
  0
INSERT
  8
FeatureAttribs
  2
FEATURE
  41
1
  42
1
  43
1
  50
0
  10
520805.025
  20
4163805.132
 66
1
  0
ATTRIB
  8
FeatureAttribs
 70
0
  1
raise elevation
  2
NAME
  10
520805.025
  20
4163805.132
 40
366.53038
  0
SEQEND
  0
POLYLINE
  8
Unknown_Area_Type
  70
1
  66
1
  0
VERTEX
  8
Unknown_Area_Type
  10
520637.217
  20
4163952.904
  0
VERTEX
  8
Unknown_Area_Type
  10
520972.833
  20
4163952.904
  0
VERTEX
  8
Unknown_Area_Type
  10
520972.833
  20
4163657.361
  0
VERTEX
  8
Unknown_Area_Type
  10
520637.217
  20
4163657.361
  0
VERTEX
  8
Unknown_Area_Type
  10
520637.217
  20
4163952.904
  0
SEQEND
  8
Unknown_Area_Type
  0
INSERT
  8
FeatureAttribs
  2
FEATURE
  41
1
  42
1
  43
1
  50
0
  10
528086.648
  20
4161270.553
 66
1
  0
ATTRIB
  8
FeatureAttribs
 70
0
  1
raise elevation
  2
NAME
  10
528086.648
  20
4161270.553
 40
366.53038
  0
SEQEND
  0
POLYLINE
  8
Unknown_Area_Type
  70
1
  66
1
  0
VERTEX
  8
Unknown_Area_Type
  10
527930.112
  20
4161390.473
  0
VERTEX
  8
Unknown_Area_Type
  10
528243.185
  20
4161390.473
  0
VERTEX
  8
Unknown_Area_Type
  10
528243.185
  20
4161150.633
  0
VERTEX
  8
Unknown_Area_Type
  10
527930.112
  20
4161150.633
  0
VERTEX
  8
Unknown_Area_Type
  10
527930.112
  20
4161390.473
  0
SEQEND
  8
Unknown_Area_Type
  0
INSERT
  8
FeatureAttribs
  2
FEATURE
  41
1
  42
1
  43
1
  50
0
  10
536220.645
  20
4159418.698
 66
1
  0
ATTRIB
  8
FeatureAttribs
 70
0
  1
raise elevation
  2
NAME
  10
536220.645
  20
4159418.698
 40
366.53038
  0
SEQEND
  0
POLYLINE
  8
Unknown_Area_Type
  70
1
  66
1
  0
VERTEX
  8
Unknown_Area_Type
  10
536106.729
  20
4159323.267
  0
VERTEX
  8
Unknown_Area_Type
  10
536106.729
  20
4159514.129
  0
VERTEX
  8
Unknown_Area_Type
  10
536334.560
  20
4159514.129
  0
VERTEX
  8
Unknown_Area_Type
  10
536334.560
  20
4159323.267
  0
VERTEX
  8
Unknown_Area_Type
  10
536106.729
  20
4159323.267
  0
SEQEND
  8
Unknown_Area_Type
  0
INSERT
  8
FeatureAttribs
  2
FEATURE
  41
1
  42
1
  43
1
  50
0
  10
511496.729
  20
4159068.874
 66
1
  0
ATTRIB
  8
FeatureAttribs
 70
0
  1
raise elevation
  2
NAME
  10
511496.729
  20
4159068.874
 40
366.53038
  0
SEQEND
  0
POLYLINE
  8
Unknown_Area_Type
  70
1
  66
1
  0
VERTEX
  8
Unknown_Area_Type
  10
511346.359
  20
4159189.015
  0
VERTEX
  8
Unknown_Area_Type
  10
511647.098
  20
4159189.015
  0
VERTEX
  8
Unknown_Area_Type
  10
511647.098
  20
4158948.734
  0
VERTEX
  8
Unknown_Area_Type
  10
511346.359
  20
4158948.734
  0
VERTEX
  8
Unknown_Area_Type
  10
511346.359
  20
4159189.015
  0
SEQEND
  8
Unknown_Area_Type
  0
INSERT
  8
FeatureAttribs
  2
FEATURE
  41
1
  42
1
  43
1
  50
0
  10
504218.871
  20
4159243.928
 66
1
  0
ATTRIB
  8
FeatureAttribs
 70
0
  1
raise elevation
  2
NAME
  10
504218.871
  20
4159243.928
 40
366.53038
  0
SEQEND
  0
POLYLINE
  8
Unknown_Area_Type
  70
1
  66
1
  0
VERTEX
  8
Unknown_Area_Type
  10
504094.220
  20
4159362.715
  0
VERTEX
  8
Unknown_Area_Type
  10
504343.522
  20
4159362.715
  0
VERTEX
  8
Unknown_Area_Type
  10
504343.522
  20
4159125.140
  0
VERTEX
  8
Unknown_Area_Type
  10
504094.220
  20
4159125.140
  0
VERTEX
  8
Unknown_Area_Type
  10
504094.220
  20
4159362.715
  0
SEQEND
  8
Unknown_Area_Type
  0
INSERT
  8
FeatureAttribs
  2
FEATURE
  41
1
  42
1
  43
1
  50
0
  10
538318.046
  20
4157217.356
 66
1
  0
ATTRIB
  8
FeatureAttribs
 70
0
  1
raise elevation
  2
NAME
  10
538318.046
  20
4157217.356
 40
366.53038
  0
SEQEND
  0
POLYLINE
  8
Unknown_Area_Type
  70
1
  66
1
  0
VERTEX
  8
Unknown_Area_Type
  10
538090.126
  20
4157410.396
  0
VERTEX
  8
Unknown_Area_Type
  10
538545.966
  20
4157410.396
  0
VERTEX
  8
Unknown_Area_Type
  10
538545.966
  20
4157024.315
  0
VERTEX
  8
Unknown_Area_Type
  10
538090.126
  20
4157024.315
  0
VERTEX
  8
Unknown_Area_Type
  10
538090.126
  20
4157410.396
  0
SEQEND
  8
Unknown_Area_Type
  0
INSERT
  8
FeatureAttribs
  2
FEATURE
  41
1
  42
1
  43
1
  50
0
  10
504459.561
  20
4150796.007
 66
1
  0
ATTRIB
  8
FeatureAttribs
 70
0
  1
not perennial water - do not fl
  2
NAME
  10
504459.561
  20
4150796.007
 40
366.53038
  0
SEQEND
  0
POLYLINE
  8
Unknown_Area_Type
  70
1
  66
1
  0
VERTEX
  8
Unknown_Area_Type
  10
504647.365
  20
4150622.080
  0
VERTEX
  8
Unknown_Area_Type
  10
504271.756
  20
4150622.080
  0
VERTEX
  8
Unknown_Area_Type
  10
504271.756
  20
4150969.933
  0
VERTEX
  8
Unknown_Area_Type
  10
504647.365
  20
4150969.933
  0
VERTEX
  8
Unknown_Area_Type
  10
504647.365
  20
4150622.080
  0
SEQEND
  8
Unknown_Area_Type
  0
INSERT
  8
FeatureAttribs
  2
FEATURE
  41
1
  42
1
  43
1
  50
0
  10
499212.710
  20
4148970.262
 66
1
  0
ATTRIB
  8
FeatureAttribs
 70
0
  1
raise elevation
  2
NAME
  10
499212.710
  20
4148970.262
 40
366.53038
  0
SEQEND
  0
POLYLINE
  8
Unknown_Area_Type
  70
1
  66
1
  0
VERTEX
  8
Unknown_Area_Type
  10
499124.683
  20
4148892.747
  0
VERTEX
  8
Unknown_Area_Type
  10
499124.683
  20
4149047.776
  0
VERTEX
  8
Unknown_Area_Type
  10
499300.738
  20
4149047.776
  0
VERTEX
  8
Unknown_Area_Type
  10
499300.738
  20
4148892.747
  0
VERTEX
  8
Unknown_Area_Type
  10
499124.683
  20
4148892.747
  0
SEQEND
  8
Unknown_Area_Type
  0
INSERT
  8
FeatureAttribs
  2
FEATURE
  41
1
  42
1
  43
1
  50
0
  10
503302.680
  20
4148815.339
 66
1
  0
ATTRIB
  8
FeatureAttribs
 70
0
  1
raise elevation
  2
NAME
  10
503302.680
  20
4148815.339
 40
366.53038
  0
SEQEND
  0
POLYLINE
  8
Unknown_Area_Type
  70
1
  66
1
  0
VERTEX
  8
Unknown_Area_Type
  10
503224.564
  20
4148723.254
  0
VERTEX
  8
Unknown_Area_Type
  10
503224.564
  20
4148907.425
  0
VERTEX
  8
Unknown_Area_Type
  10
503380.796
  20
4148907.425
  0
VERTEX
  8
Unknown_Area_Type
  10
503380.796
  20
4148723.254
  0
VERTEX
  8
Unknown_Area_Type
  10
503224.564
  20
4148723.254
  0
SEQEND
  8
Unknown_Area_Type
  0
INSERT
  8
FeatureAttribs
  2
FEATURE
  41
1
  42
1
  43
1
  50
0
  10
505923.708
  20
4147403.908
 66
1
  0
ATTRIB
  8
FeatureAttribs
 70
0
  1
raise elevation
  2
NAME
  10
505923.708
  20
4147403.908
 40
366.53038
  0
SEQEND
  0
POLYLINE
  8
Unknown_Area_Type
  70
1
  66
1
  0
VERTEX
  8
Unknown_Area_Type
  10
505807.942
  20
4147303.101
  0
VERTEX
  8
Unknown_Area_Type
  10
505807.942
  20
4147504.716
  0
VERTEX
  8
Unknown_Area_Type
  10
506039.474
  20
4147504.716
  0
VERTEX
  8
Unknown_Area_Type
  10
506039.474
  20
4147303.101
  0
VERTEX
  8
Unknown_Area_Type
  10
505807.942
  20
4147303.101
  0
SEQEND
  8
Unknown_Area_Type
  0
INSERT
  8
FeatureAttribs
  2
FEATURE
  41
1
  42
1
  43
1
  50
0
  10
532188.330
  20
4147281.692
 66
1
  0
ATTRIB
  8
FeatureAttribs
 70
0
  1
raise elevation
  2
NAME
  10
532188.330
  20
4147281.692
 40
366.53038
  0
SEQEND
  0
POLYLINE
  8
Unknown_Area_Type
  70
1
  66
1
  0
VERTEX
  8
Unknown_Area_Type
  10
532084.199
  20
4147192.101
  0
VERTEX
  8
Unknown_Area_Type
  10
532084.199
  20
4147371.283
  0
VERTEX
  8
Unknown_Area_Type
  10
532292.461
  20
4147371.283
  0
VERTEX
  8
Unknown_Area_Type
  10
532292.461
  20
4147192.101
  0
VERTEX
  8
Unknown_Area_Type
  10
532084.199
  20
4147192.101
  0
SEQEND
  8
Unknown_Area_Type
  0
INSERT
  8
FeatureAttribs
  2
FEATURE
  41
1
  42
1
  43
1
  50
0
  10
515064.627
  20
4145657.536
 66
1
  0
ATTRIB
  8
FeatureAttribs
 70
0
  1
raise elevation
  2
NAME
  10
515064.627
  20
4145657.536
 40
366.53038
  0
SEQEND
  0
POLYLINE
  8
Unknown_Area_Type
  70
1
  66
1
  0
VERTEX
  8
Unknown_Area_Type
  10
515222.845
  20
4145508.512
  0
VERTEX
  8
Unknown_Area_Type
  10
514906.408
  20
4145508.512
  0
VERTEX
  8
Unknown_Area_Type
  10
514906.408
  20
4145806.560
  0
VERTEX
  8
Unknown_Area_Type
  10
515222.845
  20
4145806.560
  0
VERTEX
  8
Unknown_Area_Type
  10
515222.845
  20
4145508.512
  0
SEQEND
  8
Unknown_Area_Type
  0
INSERT
  8
FeatureAttribs
  2
FEATURE
  41
1
  42
1
  43
1
  50
0
  10
504895.135
  20
4145445.932
 66
1
  0
ATTRIB
  8
FeatureAttribs
 70
0
  1
raise elevation
  2
NAME
  10
504895.135
  20
4145445.932
 40
366.53038
  0
SEQEND
  0
POLYLINE
  8
Unknown_Area_Type
  70
1
  66
1
  0
VERTEX
  8
Unknown_Area_Type
  10
504767.399
  20
4145529.990
  0
VERTEX
  8
Unknown_Area_Type
  10
505022.870
  20
4145529.990
  0
VERTEX
  8
Unknown_Area_Type
  10
505022.870
  20
4145361.873
  0
VERTEX
  8
Unknown_Area_Type
  10
504767.399
  20
4145361.873
  0
VERTEX
  8
Unknown_Area_Type
  10
504767.399
  20
4145529.990
  0
SEQEND
  8
Unknown_Area_Type
  0
INSERT
  8
FeatureAttribs
  2
FEATURE
  41
1
  42
1
  43
1
  50
0
  10
496658.147
  20
4146283.965
 66
1
  0
ATTRIB
  8
FeatureAttribs
 70
0
  1
raise elevation
  2
NAME
  10
496658.147
  20
4146283.965
 40
366.53038
  0
SEQEND
  0
POLYLINE
  8
Unknown_Area_Type
  70
1
  66
1
  0
VERTEX
  8
Unknown_Area_Type
  10
496589.975
  20
4146410.571
  0
VERTEX
  8
Unknown_Area_Type
  10
496726.319
  20
4146410.571
  0
VERTEX
  8
Unknown_Area_Type
  10
496726.319
  20
4146157.360
  0
VERTEX
  8
Unknown_Area_Type
  10
496589.975
  20
4146157.360
  0
VERTEX
  8
Unknown_Area_Type
  10
496589.975
  20
4146410.571
  0
SEQEND
  8
Unknown_Area_Type
  0
INSERT
  8
FeatureAttribs
  2
FEATURE
  41
1
  42
1
  43
1
  50
0
  10
500123.944
  20
4146177.535
 66
1
  0
ATTRIB
  8
FeatureAttribs
 70
0
  1
raise elevation
  2
NAME
  10
500123.944
  20
4146177.535
 40
366.53038
  0
SEQEND
  0
POLYLINE
  8
Unknown_Area_Type
  70
1
  66
1
  0
VERTEX
  8
Unknown_Area_Type
  10
500001.577
  20
4146297.894
  0
VERTEX
  8
Unknown_Area_Type
  10
500246.312
  20
4146297.894
  0
VERTEX
  8
Unknown_Area_Type
  10
500246.312
  20
4146057.176
  0
VERTEX
  8
Unknown_Area_Type
  10
500001.577
  20
4146057.176
  0
VERTEX
  8
Unknown_Area_Type
  10
500001.577
  20
4146297.894
  0
SEQEND
  8
Unknown_Area_Type
  0
INSERT
  8
FeatureAttribs
  2
FEATURE
  41
1
  42
1
  43
1
  50
0
  10
495600.143
  20
4145804.714
 66
1
  0
ATTRIB
  8
FeatureAttribs
 70
0
  1
raise elevation
  2
NAME
  10
495600.143
  20
4145804.714
 40
366.53038
  0
SEQEND
  0
POLYLINE
  8
Unknown_Area_Type
  70
1
  66
1
  0
VERTEX
  8
Unknown_Area_Type
  10
495492.094
  20
4145885.556
  0
VERTEX
  8
Unknown_Area_Type
  10
495708.191
  20
4145885.556
  0
VERTEX
  8
Unknown_Area_Type
  10
495708.191
  20
4145723.872
  0
VERTEX
  8
Unknown_Area_Type
  10
495492.094
  20
4145723.872
  0
VERTEX
  8
Unknown_Area_Type
  10
495492.094
  20
4145885.556
  0
SEQEND
  8
Unknown_Area_Type
  0
INSERT
  8
FeatureAttribs
  2
FEATURE
  41
1
  42
1
  43
1
  50
0
  10
496022.232
  20
4145866.123
 66
1
  0
ATTRIB
  8
FeatureAttribs
 70
0
  1
raise elevation
  2
NAME
  10
496022.232
  20
4145866.123
 40
366.53038
  0
SEQEND
  0
POLYLINE
  8
Unknown_Area_Type
  70
1
  66
1
  0
VERTEX
  8
Unknown_Area_Type
  10
495946.831
  20
4145949.297
  0
VERTEX
  8
Unknown_Area_Type
  10
496097.632
  20
4145949.297
  0
VERTEX
  8
Unknown_Area_Type
  10
496097.632
  20
4145782.949
  0
VERTEX
  8
Unknown_Area_Type
  10
495946.831
  20
4145782.949
  0
VERTEX
  8
Unknown_Area_Type
  10
495946.831
  20
4145949.297
  0
SEQEND
  8
Unknown_Area_Type
  0
INSERT
  8
FeatureAttribs
  2
FEATURE
  41
1
  42
1
  43
1
  50
0
  10
496273.697
  20
4145902.657
 66
1
  0
ATTRIB
  8
FeatureAttribs
 70
0
  1
raise elevation
  2
NAME
  10
496273.697
  20
4145902.657
 40
366.53038
  0
SEQEND
  0
POLYLINE
  8
Unknown_Area_Type
  70
1
  66
1
  0
VERTEX
  8
Unknown_Area_Type
  10
496120.952
  20
4146045.685
  0
VERTEX
  8
Unknown_Area_Type
  10
496426.442
  20
4146045.685
  0
VERTEX
  8
Unknown_Area_Type
  10
496426.442
  20
4145759.629
  0
VERTEX
  8
Unknown_Area_Type
  10
496120.952
  20
4145759.629
  0
VERTEX
  8
Unknown_Area_Type
  10
496120.952
  20
4146045.685
  0
SEQEND
  8
Unknown_Area_Type
  0
INSERT
  8
FeatureAttribs
  2
FEATURE
  41
1
  42
1
  43
1
  50
0
  10
501725.867
  20
4145499.183
 66
1
  0
ATTRIB
  8
FeatureAttribs
 70
0
  1
raise elevation
  2
NAME
  10
501725.867
  20
4145499.183
 40
366.53038
  0
SEQEND
  0
POLYLINE
  8
Unknown_Area_Type
  70
1
  66
1
  0
VERTEX
  8
Unknown_Area_Type
  10
501615.492
  20
4145558.025
  0
VERTEX
  8
Unknown_Area_Type
  10
501836.241
  20
4145558.025
  0
VERTEX
  8
Unknown_Area_Type
  10
501836.241
  20
4145440.340
  0
VERTEX
  8
Unknown_Area_Type
  10
501615.492
  20
4145440.340
  0
VERTEX
  8
Unknown_Area_Type
  10
501615.492
  20
4145558.025
  0
SEQEND
  8
Unknown_Area_Type
  0
INSERT
  8
FeatureAttribs
  2
FEATURE
  41
1
  42
1
  43
1
  50
0
  10
491553.413
  20
4429612.858
 66
1
  0
ATTRIB
  8
FeatureAttribs
 70
0
  1
bridge
  2
NAME
  10
491553.413
  20
4429612.858
 40
366.53038
  0
SEQEND
  0
POLYLINE
  8
Unknown_Area_Type
  70
1
  66
1
  0
VERTEX
  8
Unknown_Area_Type
  10
491496.420
  20
4429555.253
  0
VERTEX
  8
Unknown_Area_Type
  10
491496.420
  20
4429670.463
  0
VERTEX
  8
Unknown_Area_Type
  10
491610.406
  20
4429670.463
  0
VERTEX
  8
Unknown_Area_Type
  10
491610.406
  20
4429555.253
  0
VERTEX
  8
Unknown_Area_Type
  10
491496.420
  20
4429555.253
  0
SEQEND
  8
Unknown_Area_Type
  0
INSERT
  8
FeatureAttribs
  2
FEATURE
  41
1
  42
1
  43
1
  50
0
  10
522115.439
  20
4429330.873
 66
1
  0
ATTRIB
  8
FeatureAttribs
 70
0
  1
raise elevation
  2
NAME
  10
522115.439
  20
4429330.873
 40
366.53038
  0
SEQEND
  0
POLYLINE
  8
Unknown_Area_Type
  70
1
  66
1
  0
VERTEX
  8
Unknown_Area_Type
  10
521816.991
  20
4429583.337
  0
VERTEX
  8
Unknown_Area_Type
  10
522413.888
  20
4429583.337
  0
VERTEX
  8
Unknown_Area_Type
  10
522413.888
  20
4429078.408
  0
VERTEX
  8
Unknown_Area_Type
  10
521816.991
  20
4429078.408
  0
VERTEX
  8
Unknown_Area_Type
  10
521816.991
  20
4429583.337
  0
SEQEND
  8
Unknown_Area_Type
  0
INSERT
  8
FeatureAttribs
  2
FEATURE
  41
1
  42
1
  43
1
  50
0
  10
523146.035
  20
4429422.842
 66
1
  0
ATTRIB
  8
FeatureAttribs
 70
0
  1
raise elevation
  2
NAME
  10
523146.035
  20
4429422.842
 40
366.53038
  0
SEQEND
  0
POLYLINE
  8
Unknown_Area_Type
  70
1
  66
1
  0
VERTEX
  8
Unknown_Area_Type
  10
522983.737
  20
4429704.159
  0
VERTEX
  8
Unknown_Area_Type
  10
523308.334
  20
4429704.159
  0
VERTEX
  8
Unknown_Area_Type
  10
523308.334
  20
4429141.525
  0
VERTEX
  8
Unknown_Area_Type
  10
522983.737
  20
4429141.525
  0
VERTEX
  8
Unknown_Area_Type
  10
522983.737
  20
4429704.159
  0
SEQEND
  8
Unknown_Area_Type
  0
INSERT
  8
FeatureAttribs
  2
FEATURE
  41
1
  42
1
  43
1
  50
0
  10
523829.492
  20
4429490.466
 66
1
  0
ATTRIB
  8
FeatureAttribs
 70
0
  1
raise elevation
  2
NAME
  10
523829.492
  20
4429490.466
 40
366.53038
  0
SEQEND
  0
POLYLINE
  8
Unknown_Area_Type
  70
1
  66
1
  0
VERTEX
  8
Unknown_Area_Type
  10
523623.914
  20
4429788.915
  0
VERTEX
  8
Unknown_Area_Type
  10
524035.070
  20
4429788.915
  0
VERTEX
  8
Unknown_Area_Type
  10
524035.070
  20
4429192.017
  0
VERTEX
  8
Unknown_Area_Type
  10
523623.914
  20
4429192.017
  0
VERTEX
  8
Unknown_Area_Type
  10
523623.914
  20
4429788.915
  0
SEQEND
  8
Unknown_Area_Type
  0
INSERT
  8
FeatureAttribs
  2
FEATURE
  41
1
  42
1
  43
1
  50
0
  10
528392.280
  20
4429876.452
 66
1
  0
ATTRIB
  8
FeatureAttribs
 70
0
  1
raise elevation
  2
NAME
  10
528392.280
  20
4429876.452
 40
366.53038
  0
SEQEND
  0
POLYLINE
  8
Unknown_Area_Type
  70
1
  66
1
  0
VERTEX
  8
Unknown_Area_Type
  10
528652.183
  20
4429729.271
  0
VERTEX
  8
Unknown_Area_Type
  10
528132.376
  20
4429729.271
  0
VERTEX
  8
Unknown_Area_Type
  10
528132.376
  20
4430023.632
  0
VERTEX
  8
Unknown_Area_Type
  10
528652.183
  20
4430023.632
  0
VERTEX
  8
Unknown_Area_Type
  10
528652.183
  20
4429729.271
  0
SEQEND
  8
Unknown_Area_Type
  0
INSERT
  8
FeatureAttribs
  2
FEATURE
  41
1
  42
1
  43
1
  50
0
  10
491005.313
  20
4429283.161
 66
1
  0
ATTRIB
  8
FeatureAttribs
 70
0
  1
bridge
  2
NAME
  10
491005.313
  20
4429283.161
 40
366.53038
  0
SEQEND
  0
POLYLINE
  8
Unknown_Area_Type
  70
1
  66
1
  0
VERTEX
  8
Unknown_Area_Type
  10
491075.714
  20
4429183.473
  0
VERTEX
  8
Unknown_Area_Type
  10
490934.912
  20
4429183.473
  0
VERTEX
  8
Unknown_Area_Type
  10
490934.912
  20
4429382.849
  0
VERTEX
  8
Unknown_Area_Type
  10
491075.714
  20
4429382.849
  0
VERTEX
  8
Unknown_Area_Type
  10
491075.714
  20
4429183.473
  0
SEQEND
  8
Unknown_Area_Type
  0
INSERT
  8
FeatureAttribs
  2
FEATURE
  41
1
  42
1
  43
1
  50
0
  10
491027.841
  20
4428385.970
 66
1
  0
ATTRIB
  8
FeatureAttribs
 70
0
  1
bridge
  2
NAME
  10
491027.841
  20
4428385.970
 40
366.53038
  0
SEQEND
  0
POLYLINE
  8
Unknown_Area_Type
  70
1
  66
1
  0
VERTEX
  8
Unknown_Area_Type
  10
490939.417
  20
4428470.451
  0
VERTEX
  8
Unknown_Area_Type
  10
491116.265
  20
4428470.451
  0
VERTEX
  8
Unknown_Area_Type
  10
491116.265
  20
4428301.489
  0
VERTEX
  8
Unknown_Area_Type
  10
490939.417
  20
4428301.489
  0
VERTEX
  8
Unknown_Area_Type
  10
490939.417
  20
4428470.451
  0
SEQEND
  8
Unknown_Area_Type
  0
INSERT
  8
FeatureAttribs
  2
FEATURE
  41
1
  42
1
  43
1
  50
0
  10
501486.510
  20
4327462.822
 66
1
  0
ATTRIB
  8
FeatureAttribs
 70
0
  1
raise elevation
  2
NAME
  10
501486.510
  20
4327462.822
 40
366.53038
  0
SEQEND
  0
POLYLINE
  8
Unknown_Area_Type
  70
1
  66
1
  0
VERTEX
  8
Unknown_Area_Type
  10
501396.871
  20
4327527.616
  0
VERTEX
  8
Unknown_Area_Type
  10
501576.149
  20
4327527.616
  0
VERTEX
  8
Unknown_Area_Type
  10
501576.149
  20
4327398.029
  0
VERTEX
  8
Unknown_Area_Type
  10
501396.871
  20
4327398.029
  0
VERTEX
  8
Unknown_Area_Type
  10
501396.871
  20
4327527.616
  0
SEQEND
  8
Unknown_Area_Type
  0
INSERT
  8
FeatureAttribs
  2
FEATURE
  41
1
  42
1
  43
1
  50
0
  10
446961.338
  20
4265754.297
 66
1
  0
ATTRIB
  8
FeatureAttribs
 70
0
  1
spike
  2
NAME
  10
446961.338
  20
4265754.297
 40
366.53038
  0
SEQEND
  0
POLYLINE
  8
Unknown_Area_Type
  70
1
  66
1
  0
VERTEX
  8
Unknown_Area_Type
  10
446906.977
  20
4265793.289
  0
VERTEX
  8
Unknown_Area_Type
  10
447015.699
  20
4265793.289
  0
VERTEX
  8
Unknown_Area_Type
  10
447015.699
  20
4265715.304
  0
VERTEX
  8
Unknown_Area_Type
  10
446906.977
  20
4265715.304
  0
VERTEX
  8
Unknown_Area_Type
  10
446906.977
  20
4265793.289
  0
SEQEND
  8
Unknown_Area_Type
  0
INSERT
  8
FeatureAttribs
  2
FEATURE
  41
1
  42
1
  43
1
  50
0
  10
399950.042
  20
4256398.357
 66
1
  0
ATTRIB
  8
FeatureAttribs
 70
0
  1
artifact on road
  2
NAME
  10
399950.042
  20
4256398.357
 40
366.53038
  0
SEQEND
  0
POLYLINE
  8
Unknown_Area_Type
  70
1
  66
1
  0
VERTEX
  8
Unknown_Area_Type
  10
399899.352
  20
4256455.384
  0
VERTEX
  8
Unknown_Area_Type
  10
400000.733
  20
4256455.384
  0
VERTEX
  8
Unknown_Area_Type
  10
400000.733
  20
4256341.330
  0
VERTEX
  8
Unknown_Area_Type
  10
399899.352
  20
4256341.330
  0
VERTEX
  8
Unknown_Area_Type
  10
399899.352
  20
4256455.384
  0
SEQEND
  8
Unknown_Area_Type
  0
INSERT
  8
FeatureAttribs
  2
FEATURE
  41
1
  42
1
  43
1
  50
0
  10
413400.356
  20
4246742.632
 66
1
  0
ATTRIB
  8
FeatureAttribs
 70
0
  1
not water
  2
NAME
  10
413400.356
  20
4246742.632
 40
366.53038
  0
SEQEND
  0
POLYLINE
  8
Unknown_Area_Type
  70
1
  66
1
  0
VERTEX
  8
Unknown_Area_Type
  10
413304.502
  20
4246815.712
  0
VERTEX
  8
Unknown_Area_Type
  10
413496.211
  20
4246815.712
  0
VERTEX
  8
Unknown_Area_Type
  10
413496.211
  20
4246669.552
  0
VERTEX
  8
Unknown_Area_Type
  10
413304.502
  20
4246669.552
  0
VERTEX
  8
Unknown_Area_Type
  10
413304.502
  20
4246815.712
  0
SEQEND
  8
Unknown_Area_Type
  0
INSERT
  8
FeatureAttribs
  2
FEATURE
  41
1
  42
1
  43
1
  50
0
  10
390899.826
  20
4244923.228
 66
1
  0
ATTRIB
  8
FeatureAttribs
 70
0
  1
not water
  2
NAME
  10
390899.826
  20
4244923.228
 40
366.53038
  0
SEQEND
  0
POLYLINE
  8
Unknown_Area_Type
  70
1
  66
1
  0
VERTEX
  8
Unknown_Area_Type
  10
390823.693
  20
4245000.468
  0
VERTEX
  8
Unknown_Area_Type
  10
390975.960
  20
4245000.468
  0
VERTEX
  8
Unknown_Area_Type
  10
390975.960
  20
4244845.987
  0
VERTEX
  8
Unknown_Area_Type
  10
390823.693
  20
4244845.987
  0
VERTEX
  8
Unknown_Area_Type
  10
390823.693
  20
4245000.468
  0
SEQEND
  8
Unknown_Area_Type
  0
INSERT
  8
FeatureAttribs
  2
FEATURE
  41
1
  42
1
  43
1
  50
0
  10
390887.091
  20
4244711.438
 66
1
  0
ATTRIB
  8
FeatureAttribs
 70
0
  1
not water
  2
NAME
  10
390887.091
  20
4244711.438
 40
366.53038
  0
SEQEND
  0
POLYLINE
  8
Unknown_Area_Type
  70
1
  66
1
  0
VERTEX
  8
Unknown_Area_Type
  10
390800.437
  20
4244777.882
  0
VERTEX
  8
Unknown_Area_Type
  10
390973.745
  20
4244777.882
  0
VERTEX
  8
Unknown_Area_Type
  10
390973.745
  20
4244644.994
  0
VERTEX
  8
Unknown_Area_Type
  10
390800.437
  20
4244644.994
  0
VERTEX
  8
Unknown_Area_Type
  10
390800.437
  20
4244777.882
  0
SEQEND
  8
Unknown_Area_Type
  0
INSERT
  8
FeatureAttribs
  2
FEATURE
  41
1
  42
1
  43
1
  50
0
  10
399655.296
  20
4239038.242
 66
1
  0
ATTRIB
  8
FeatureAttribs
 70
0
  1
flatten
  2
NAME
  10
399655.296
  20
4239038.242
 40
366.53038
  0
SEQEND
  0
POLYLINE
  8
Unknown_Area_Type
  70
1
  66
1
  0
VERTEX
  8
Unknown_Area_Type
  10
399424.980
  20
4238710.014
  0
VERTEX
  8
Unknown_Area_Type
  10
399424.980
  20
4239366.470
  0
VERTEX
  8
Unknown_Area_Type
  10
399885.612
  20
4239366.470
  0
VERTEX
  8
Unknown_Area_Type
  10
399885.612
  20
4238710.014
  0
VERTEX
  8
Unknown_Area_Type
  10
399424.980
  20
4238710.014
  0
SEQEND
  8
Unknown_Area_Type
  0
INSERT
  8
FeatureAttribs
  2
FEATURE
  41
1
  42
1
  43
1
  50
0
  10
402918.972
  20
4235239.113
 66
1
  0
ATTRIB
  8
FeatureAttribs
 70
0
  1
flatten
  2
NAME
  10
402918.972
  20
4235239.113
 40
366.53038
  0
SEQEND
  0
POLYLINE
  8
Unknown_Area_Type
  70
1
  66
1
  0
VERTEX
  8
Unknown_Area_Type
  10
402640.641
  20
4235478.226
  0
VERTEX
  8
Unknown_Area_Type
  10
403197.304
  20
4235478.226
  0
VERTEX
  8
Unknown_Area_Type
  10
403197.304
  20
4235000.000
  0
VERTEX
  8
Unknown_Area_Type
  10
402640.641
  20
4235000.000
  0
VERTEX
  8
Unknown_Area_Type
  10
402640.641
  20
4235478.226
  0
SEQEND
  8
Unknown_Area_Type
  0
INSERT
  8
FeatureAttribs
  2
FEATURE
  41
1
  42
1
  43
1
  50
0
  10
591974.486
  20
4222037.204
 66
1
  0
ATTRIB
  8
FeatureAttribs
 70
0
  1
floating
  2
NAME
  10
591974.486
  20
4222037.204
 40
366.53038
  0
SEQEND
  0
POLYLINE
  8
Unknown_Area_Type
  70
1
  66
1
  0
VERTEX
  8
Unknown_Area_Type
  10
591915.366
  20
4222096.644
  0
VERTEX
  8
Unknown_Area_Type
  10
592033.607
  20
4222096.644
  0
VERTEX
  8
Unknown_Area_Type
  10
592033.607
  20
4221977.763
  0
VERTEX
  8
Unknown_Area_Type
  10
591915.366
  20
4221977.763
  0
VERTEX
  8
Unknown_Area_Type
  10
591915.366
  20
4222096.644
  0
SEQEND
  8
Unknown_Area_Type
  0
INSERT
  8
FeatureAttribs
  2
FEATURE
  41
1
  42
1
  43
1
  50
0
  10
566886.738
  20
4208690.187
 66
1
  0
ATTRIB
  8
FeatureAttribs
 70
0
  1
not perennial water
  2
NAME
  10
566886.738
  20
4208690.187
 40
366.53038
  0
SEQEND
  0
POLYLINE
  8
Unknown_Area_Type
  70
1
  66
1
  0
VERTEX
  8
Unknown_Area_Type
  10
566777.527
  20
4208821.424
  0
VERTEX
  8
Unknown_Area_Type
  10
566995.949
  20
4208821.424
  0
VERTEX
  8
Unknown_Area_Type
  10
566995.949
  20
4208558.950
  0
VERTEX
  8
Unknown_Area_Type
  10
566777.527
  20
4208558.950
  0
VERTEX
  8
Unknown_Area_Type
  10
566777.527
  20
4208821.424
  0
SEQEND
  8
Unknown_Area_Type
  0
INSERT
  8
FeatureAttribs
  2
FEATURE
  41
1
  42
1
  43
1
  50
0
  10
518969.453
  20
4208478.937
 66
1
  0
ATTRIB
  8
FeatureAttribs
 70
0
  1
raise elevation
  2
NAME
  10
518969.453
  20
4208478.937
 40
366.53038
  0
SEQEND
  0
POLYLINE
  8
Unknown_Area_Type
  70
1
  66
1
  0
VERTEX
  8
Unknown_Area_Type
  10
518760.519
  20
4208637.502
  0
VERTEX
  8
Unknown_Area_Type
  10
519178.387
  20
4208637.502
  0
VERTEX
  8
Unknown_Area_Type
  10
519178.387
  20
4208320.371
  0
VERTEX
  8
Unknown_Area_Type
  10
518760.519
  20
4208320.371
  0
VERTEX
  8
Unknown_Area_Type
  10
518760.519
  20
4208637.502
  0
SEQEND
  8
Unknown_Area_Type
  0
INSERT
  8
FeatureAttribs
  2
FEATURE
  41
1
  42
1
  43
1
  50
0
  10
601558.328
  20
4198608.520
 66
1
  0
ATTRIB
  8
FeatureAttribs
 70
0
  1
not water
  2
NAME
  10
601558.328
  20
4198608.520
 40
366.53038
  0
SEQEND
  0
POLYLINE
  8
Unknown_Area_Type
  70
1
  66
1
  0
VERTEX
  8
Unknown_Area_Type
  10
601464.533
  20
4198715.475
  0
VERTEX
  8
Unknown_Area_Type
  10
601652.123
  20
4198715.475
  0
VERTEX
  8
Unknown_Area_Type
  10
601652.123
  20
4198501.565
  0
VERTEX
  8
Unknown_Area_Type
  10
601464.533
  20
4198501.565
  0
VERTEX
  8
Unknown_Area_Type
  10
601464.533
  20
4198715.475
  0
SEQEND
  8
Unknown_Area_Type
  0
INSERT
  8
FeatureAttribs
  2
FEATURE
  41
1
  42
1
  43
1
  50
0
  10
566318.776
  20
4178676.755
 66
1
  0
ATTRIB
  8
FeatureAttribs
 70
0
  1
raise elevation
  2
NAME
  10
566318.776
  20
4178676.755
 40
366.53038
  0
SEQEND
  0
POLYLINE
  8
Unknown_Area_Type
  70
1
  66
1
  0
VERTEX
  8
Unknown_Area_Type
  10
566199.622
  20
4178564.916
  0
VERTEX
  8
Unknown_Area_Type
  10
566199.622
  20
4178788.595
  0
VERTEX
  8
Unknown_Area_Type
  10
566437.930
  20
4178788.595
  0
VERTEX
  8
Unknown_Area_Type
  10
566437.930
  20
4178564.916
  0
VERTEX
  8
Unknown_Area_Type
  10
566199.622
  20
4178564.916
  0
SEQEND
  8
Unknown_Area_Type
  0
INSERT
  8
FeatureAttribs
  2
FEATURE
  41
1
  42
1
  43
1
  50
0
  10
578722.723
  20
4168788.808
 66
1
  0
ATTRIB
  8
FeatureAttribs
 70
0
  1
raise elevation
  2
NAME
  10
578722.723
  20
4168788.808
 40
366.53038
  0
SEQEND
  0
POLYLINE
  8
Unknown_Area_Type
  70
1
  66
1
  0
VERTEX
  8
Unknown_Area_Type
  10
578646.139
  20
4168857.697
  0
VERTEX
  8
Unknown_Area_Type
  10
578799.307
  20
4168857.697
  0
VERTEX
  8
Unknown_Area_Type
  10
578799.307
  20
4168719.920
  0
VERTEX
  8
Unknown_Area_Type
  10
578646.139
  20
4168719.920
  0
VERTEX
  8
Unknown_Area_Type
  10
578646.139
  20
4168857.697
  0
SEQEND
  8
Unknown_Area_Type
  0
INSERT
  8
FeatureAttribs
  2
FEATURE
  41
1
  42
1
  43
1
  50
0
  10
608087.622
  20
4162589.047
 66
1
  0
ATTRIB
  8
FeatureAttribs
 70
0
  1
not water
  2
NAME
  10
608087.622
  20
4162589.047
 40
366.53038
  0
SEQEND
  0
POLYLINE
  8
Unknown_Area_Type
  70
1
  66
1
  0
VERTEX
  8
Unknown_Area_Type
  10
607962.693
  20
4162644.511
  0
VERTEX
  8
Unknown_Area_Type
  10
608212.551
  20
4162644.511
  0
VERTEX
  8
Unknown_Area_Type
  10
608212.551
  20
4162533.582
  0
VERTEX
  8
Unknown_Area_Type
  10
607962.693
  20
4162533.582
  0
VERTEX
  8
Unknown_Area_Type
  10
607962.693
  20
4162644.511
  0
SEQEND
  8
Unknown_Area_Type
  0
INSERT
  8
FeatureAttribs
  2
FEATURE
  41
1
  42
1
  43
1
  50
0
  10
567580.305
  20
4158380.331
 66
1
  0
ATTRIB
  8
FeatureAttribs
 70
0
  1
raise elevation
  2
NAME
  10
567580.305
  20
4158380.331
 40
366.53038
  0
SEQEND
  0
POLYLINE
  8
Unknown_Area_Type
  70
1
  66
1
  0
VERTEX
  8
Unknown_Area_Type
  10
567479.249
  20
4158475.229
  0
VERTEX
  8
Unknown_Area_Type
  10
567681.360
  20
4158475.229
  0
VERTEX
  8
Unknown_Area_Type
  10
567681.360
  20
4158285.433
  0
VERTEX
  8
Unknown_Area_Type
  10
567479.249
  20
4158285.433
  0
VERTEX
  8
Unknown_Area_Type
  10
567479.249
  20
4158475.229
  0
SEQEND
  8
Unknown_Area_Type
  0
INSERT
  8
FeatureAttribs
  2
FEATURE
  41
1
  42
1
  43
1
  50
0
  10
491553.413
  20
4429612.858
 66
1
  0
ATTRIB
  8
FeatureAttribs
 70
0
  1
bridge
  2
NAME
  10
491553.413
  20
4429612.858
 40
366.53038
  0
SEQEND
  0
POLYLINE
  8
Unknown_Area_Type
  70
1
  66
1
  0
VERTEX
  8
Unknown_Area_Type
  10
491496.420
  20
4429555.253
  0
VERTEX
  8
Unknown_Area_Type
  10
491496.420
  20
4429670.463
  0
VERTEX
  8
Unknown_Area_Type
  10
491610.406
  20
4429670.463
  0
VERTEX
  8
Unknown_Area_Type
  10
491610.406
  20
4429555.253
  0
VERTEX
  8
Unknown_Area_Type
  10
491496.420
  20
4429555.253
  0
SEQEND
  8
Unknown_Area_Type
  0
INSERT
  8
FeatureAttribs
  2
FEATURE
  41
1
  42
1
  43
1
  50
0
  10
522115.439
  20
4429330.873
 66
1
  0
ATTRIB
  8
FeatureAttribs
 70
0
  1
raise elevation
  2
NAME
  10
522115.439
  20
4429330.873
 40
366.53038
  0
SEQEND
  0
POLYLINE
  8
Unknown_Area_Type
  70
1
  66
1
  0
VERTEX
  8
Unknown_Area_Type
  10
521816.991
  20
4429583.337
  0
VERTEX
  8
Unknown_Area_Type
  10
522413.888
  20
4429583.337
  0
VERTEX
  8
Unknown_Area_Type
  10
522413.888
  20
4429078.408
  0
VERTEX
  8
Unknown_Area_Type
  10
521816.991
  20
4429078.408
  0
VERTEX
  8
Unknown_Area_Type
  10
521816.991
  20
4429583.337
  0
SEQEND
  8
Unknown_Area_Type
  0
INSERT
  8
FeatureAttribs
  2
FEATURE
  41
1
  42
1
  43
1
  50
0
  10
523146.035
  20
4429422.842
 66
1
  0
ATTRIB
  8
FeatureAttribs
 70
0
  1
raise elevation
  2
NAME
  10
523146.035
  20
4429422.842
 40
366.53038
  0
SEQEND
  0
POLYLINE
  8
Unknown_Area_Type
  70
1
  66
1
  0
VERTEX
  8
Unknown_Area_Type
  10
522983.737
  20
4429704.159
  0
VERTEX
  8
Unknown_Area_Type
  10
523308.334
  20
4429704.159
  0
VERTEX
  8
Unknown_Area_Type
  10
523308.334
  20
4429141.525
  0
VERTEX
  8
Unknown_Area_Type
  10
522983.737
  20
4429141.525
  0
VERTEX
  8
Unknown_Area_Type
  10
522983.737
  20
4429704.159
  0
SEQEND
  8
Unknown_Area_Type
  0
INSERT
  8
FeatureAttribs
  2
FEATURE
  41
1
  42
1
  43
1
  50
0
  10
523829.492
  20
4429490.466
 66
1
  0
ATTRIB
  8
FeatureAttribs
 70
0
  1
raise elevation
  2
NAME
  10
523829.492
  20
4429490.466
 40
366.53038
  0
SEQEND
  0
POLYLINE
  8
Unknown_Area_Type
  70
1
  66
1
  0
VERTEX
  8
Unknown_Area_Type
  10
523623.914
  20
4429788.915
  0
VERTEX
  8
Unknown_Area_Type
  10
524035.070
  20
4429788.915
  0
VERTEX
  8
Unknown_Area_Type
  10
524035.070
  20
4429192.017
  0
VERTEX
  8
Unknown_Area_Type
  10
523623.914
  20
4429192.017
  0
VERTEX
  8
Unknown_Area_Type
  10
523623.914
  20
4429788.915
  0
SEQEND
  8
Unknown_Area_Type
  0
INSERT
  8
FeatureAttribs
  2
FEATURE
  41
1
  42
1
  43
1
  50
0
  10
528392.280
  20
4429876.452
 66
1
  0
ATTRIB
  8
FeatureAttribs
 70
0
  1
raise elevation
  2
NAME
  10
528392.280
  20
4429876.452
 40
366.53038
  0
SEQEND
  0
POLYLINE
  8
Unknown_Area_Type
  70
1
  66
1
  0
VERTEX
  8
Unknown_Area_Type
  10
528652.183
  20
4429729.271
  0
VERTEX
  8
Unknown_Area_Type
  10
528132.376
  20
4429729.271
  0
VERTEX
  8
Unknown_Area_Type
  10
528132.376
  20
4430023.632
  0
VERTEX
  8
Unknown_Area_Type
  10
528652.183
  20
4430023.632
  0
VERTEX
  8
Unknown_Area_Type
  10
528652.183
  20
4429729.271
  0
SEQEND
  8
Unknown_Area_Type
  0
INSERT
  8
FeatureAttribs
  2
FEATURE
  41
1
  42
1
  43
1
  50
0
  10
491005.313
  20
4429283.161
 66
1
  0
ATTRIB
  8
FeatureAttribs
 70
0
  1
bridge
  2
NAME
  10
491005.313
  20
4429283.161
 40
366.53038
  0
SEQEND
  0
POLYLINE
  8
Unknown_Area_Type
  70
1
  66
1
  0
VERTEX
  8
Unknown_Area_Type
  10
491075.714
  20
4429183.473
  0
VERTEX
  8
Unknown_Area_Type
  10
490934.912
  20
4429183.473
  0
VERTEX
  8
Unknown_Area_Type
  10
490934.912
  20
4429382.849
  0
VERTEX
  8
Unknown_Area_Type
  10
491075.714
  20
4429382.849
  0
VERTEX
  8
Unknown_Area_Type
  10
491075.714
  20
4429183.473
  0
SEQEND
  8
Unknown_Area_Type
  0
INSERT
  8
FeatureAttribs
  2
FEATURE
  41
1
  42
1
  43
1
  50
0
  10
491027.841
  20
4428385.970
 66
1
  0
ATTRIB
  8
FeatureAttribs
 70
0
  1
bridge
  2
NAME
  10
491027.841
  20
4428385.970
 40
366.53038
  0
SEQEND
  0
POLYLINE
  8
Unknown_Area_Type
  70
1
  66
1
  0
VERTEX
  8
Unknown_Area_Type
  10
490939.417
  20
4428470.451
  0
VERTEX
  8
Unknown_Area_Type
  10
491116.265
  20
4428470.451
  0
VERTEX
  8
Unknown_Area_Type
  10
491116.265
  20
4428301.489
  0
VERTEX
  8
Unknown_Area_Type
  10
490939.417
  20
4428301.489
  0
VERTEX
  8
Unknown_Area_Type
  10
490939.417
  20
4428470.451
  0
SEQEND
  8
Unknown_Area_Type
  0
INSERT
  8
FeatureAttribs
  2
FEATURE
  41
1
  42
1
  43
1
  50
0
  10
491662.584
  20
4429651.603
 66
1
  0
ATTRIB
  8
FeatureAttribs
 70
0
  1
bridge
  2
NAME
  10
491662.584
  20
4429651.603
 40
366.53038
  0
SEQEND
  0
POLYLINE
  8
Unknown_Area_Type
  70
1
  66
1
  0
VERTEX
  8
Unknown_Area_Type
  10
491710.048
  20
4429710.968
  0
VERTEX
  8
Unknown_Area_Type
  10
491710.048
  20
4429592.237
  0
VERTEX
  8
Unknown_Area_Type
  10
491615.120
  20
4429592.237
  0
VERTEX
  8
Unknown_Area_Type
  10
491615.120
  20
4429710.968
  0
VERTEX
  8
Unknown_Area_Type
  10
491710.048
  20
4429710.968
  0
SEQEND
  8
Unknown_Area_Type
  0
INSERT
  8
FeatureAttribs
  2
FEATURE
  41
1
  42
1
  43
1
  50
0
  10
492769.625
  20
4428708.281
 66
1
  0
ATTRIB
  8
FeatureAttribs
 70
0
  1
bridge
  2
NAME
  10
492769.625
  20
4428708.281
 40
366.53038
  0
SEQEND
  0
POLYLINE
  8
Unknown_Area_Type
  70
1
  66
1
  0
VERTEX
  8
Unknown_Area_Type
  10
492626.653
  20
4428813.336
  0
VERTEX
  8
Unknown_Area_Type
  10
492912.596
  20
4428813.336
  0
VERTEX
  8
Unknown_Area_Type
  10
492912.596
  20
4428603.226
  0
VERTEX
  8
Unknown_Area_Type
  10
492626.653
  20
4428603.226
  0
VERTEX
  8
Unknown_Area_Type
  10
492626.653
  20
4428813.336
  0
SEQEND
  8
Unknown_Area_Type
  0
INSERT
  8
FeatureAttribs
  2
FEATURE
  41
1
  42
1
  43
1
  50
0
  10
520045.646
  20
4428348.403
 66
1
  0
ATTRIB
  8
FeatureAttribs
 70
0
  1
raise elevation
  2
NAME
  10
520045.646
  20
4428348.403
 40
366.53038
  0
SEQEND
  0
POLYLINE
  8
Unknown_Area_Type
  70
1
  66
1
  0
VERTEX
  8
Unknown_Area_Type
  10
519867.846
  20
4428618.278
  0
VERTEX
  8
Unknown_Area_Type
  10
520223.446
  20
4428618.278
  0
VERTEX
  8
Unknown_Area_Type
  10
520223.446
  20
4428078.528
  0
VERTEX
  8
Unknown_Area_Type
  10
519867.846
  20
4428078.528
  0
VERTEX
  8
Unknown_Area_Type
  10
519867.846
  20
4428618.278
  0
SEQEND
  8
Unknown_Area_Type
  0
INSERT
  8
FeatureAttribs
  2
FEATURE
  41
1
  42
1
  43
1
  50
0
  10
526331.088
  20
4428077.206
 66
1
  0
ATTRIB
  8
FeatureAttribs
 70
0
  1
bridge
  2
NAME
  10
526331.088
  20
4428077.206
 40
366.53038
  0
SEQEND
  0
POLYLINE
  8
Unknown_Area_Type
  70
1
  66
1
  0
VERTEX
  8
Unknown_Area_Type
  10
526189.800
  20
4428182.774
  0
VERTEX
  8
Unknown_Area_Type
  10
526472.375
  20
4428182.774
  0
VERTEX
  8
Unknown_Area_Type
  10
526472.375
  20
4427971.637
  0
VERTEX
  8
Unknown_Area_Type
  10
526189.800
  20
4427971.637
  0
VERTEX
  8
Unknown_Area_Type
  10
526189.800
  20
4428182.774
  0
SEQEND
  8
Unknown_Area_Type
  0
INSERT
  8
FeatureAttribs
  2
FEATURE
  41
1
  42
1
  43
1
  50
0
  10
506624.820
  20
4426643.430
 66
1
  0
ATTRIB
  8
FeatureAttribs
 70
0
  1
raise elevation
  2
NAME
  10
506624.820
  20
4426643.430
 40
366.53038
  0
SEQEND
  0
POLYLINE
  8
Unknown_Area_Type
  70
1
  66
1
  0
VERTEX
  8
Unknown_Area_Type
  10
506563.441
  20
4426524.911
  0
VERTEX
  8
Unknown_Area_Type
  10
506563.441
  20
4426761.949
  0
VERTEX
  8
Unknown_Area_Type
  10
506686.199
  20
4426761.949
  0
VERTEX
  8
Unknown_Area_Type
  10
506686.199
  20
4426524.911
  0
VERTEX
  8
Unknown_Area_Type
  10
506563.441
  20
4426524.911
  0
SEQEND
  8
Unknown_Area_Type
  0
INSERT
  8
FeatureAttribs
  2
FEATURE
  41
1
  42
1
  43
1
  50
0
  10
508500.288
  20
4426419.062
 66
1
  0
ATTRIB
  8
FeatureAttribs
 70
0
  1
bridge
  2
NAME
  10
508500.288
  20
4426419.062
 40
366.53038
  0
SEQEND
  0
POLYLINE
  8
Unknown_Area_Type
  70
1
  66
1
  0
VERTEX
  8
Unknown_Area_Type
  10
508349.475
  20
4426566.699
  0
VERTEX
  8
Unknown_Area_Type
  10
508651.100
  20
4426566.699
  0
VERTEX
  8
Unknown_Area_Type
  10
508651.100
  20
4426271.424
  0
VERTEX
  8
Unknown_Area_Type
  10
508349.475
  20
4426271.424
  0
VERTEX
  8
Unknown_Area_Type
  10
508349.475
  20
4426566.699
  0
SEQEND
  8
Unknown_Area_Type
  0
INSERT
  8
FeatureAttribs
  2
FEATURE
  41
1
  42
1
  43
1
  50
0
  10
502581.294
  20
4423208.343
 66
1
  0
ATTRIB
  8
FeatureAttribs
 70
0
  1
bridge
  2
NAME
  10
502581.294
  20
4423208.343
 40
366.53038
  0
SEQEND
  0
POLYLINE
  8
Unknown_Area_Type
  70
1
  66
1
  0
VERTEX
  8
Unknown_Area_Type
  10
502487.631
  20
4423301.212
  0
VERTEX
  8
Unknown_Area_Type
  10
502674.956
  20
4423301.212
  0
VERTEX
  8
Unknown_Area_Type
  10
502674.956
  20
4423115.474
  0
VERTEX
  8
Unknown_Area_Type
  10
502487.631
  20
4423115.474
  0
VERTEX
  8
Unknown_Area_Type
  10
502487.631
  20
4423301.212
  0
SEQEND
  8
Unknown_Area_Type
  0
INSERT
  8
FeatureAttribs
  2
FEATURE
  41
1
  42
1
  43
1
  50
0
  10
539114.961
  20
4422552.877
 66
1
  0
ATTRIB
  8
FeatureAttribs
 70
0
  1
culvert replace ground points
  2
NAME
  10
539114.961
  20
4422552.877
 40
366.53038
  0
SEQEND
  0
POLYLINE
  8
Unknown_Area_Type
  70
1
  66
1
  0
VERTEX
  8
Unknown_Area_Type
  10
538991.136
  20
4422653.916
  0
VERTEX
  8
Unknown_Area_Type
  10
539238.786
  20
4422653.916
  0
VERTEX
  8
Unknown_Area_Type
  10
539238.786
  20
4422451.837
  0
VERTEX
  8
Unknown_Area_Type
  10
538991.136
  20
4422451.837
  0
VERTEX
  8
Unknown_Area_Type
  10
538991.136
  20
4422653.916
  0
SEQEND
  8
Unknown_Area_Type
  0
INSERT
  8
FeatureAttribs
  2
FEATURE
  41
1
  42
1
  43
1
  50
0
  10
533900.552
  20
4421667.674
 66
1
  0
ATTRIB
  8
FeatureAttribs
 70
0
  1
culvert
  2
NAME
  10
533900.552
  20
4421667.674
 40
366.53038
  0
SEQEND
  0
POLYLINE
  8
Unknown_Area_Type
  70
1
  66
1
  0
VERTEX
  8
Unknown_Area_Type
  10
533754.502
  20
4421830.658
  0
VERTEX
  8
Unknown_Area_Type
  10
534046.602
  20
4421830.658
  0
VERTEX
  8
Unknown_Area_Type
  10
534046.602
  20
4421504.691
  0
VERTEX
  8
Unknown_Area_Type
  10
533754.502
  20
4421504.691
  0
VERTEX
  8
Unknown_Area_Type
  10
533754.502
  20
4421830.658
  0
SEQEND
  8
Unknown_Area_Type
  0
INSERT
  8
FeatureAttribs
  2
FEATURE
  41
1
  42
1
  43
1
  50
0
  10
526073.340
  20
4420943.414
 66
1
  0
ATTRIB
  8
FeatureAttribs
 70
0
  1
raise elevation
  2
NAME
  10
526073.340
  20
4420943.414
 40
366.53038
  0
SEQEND
  0
POLYLINE
  8
Unknown_Area_Type
  70
1
  66
1
  0
VERTEX
  8
Unknown_Area_Type
  10
525956.108
  20
4421083.539
  0
VERTEX
  8
Unknown_Area_Type
  10
526190.573
  20
4421083.539
  0
VERTEX
  8
Unknown_Area_Type
  10
526190.573
  20
4420803.289
  0
VERTEX
  8
Unknown_Area_Type
  10
525956.108
  20
4420803.289
  0
VERTEX
  8
Unknown_Area_Type
  10
525956.108
  20
4421083.539
  0
SEQEND
  8
Unknown_Area_Type
  0
INSERT
  8
FeatureAttribs
  2
FEATURE
  41
1
  42
1
  43
1
  50
0
  10
506992.988
  20
4421577.806
 66
1
  0
ATTRIB
  8
FeatureAttribs
 70
0
  1
replace ground points on road
  2
NAME
  10
506992.988
  20
4421577.806
 40
366.53038
  0
SEQEND
  0
POLYLINE
  8
Unknown_Area_Type
  70
1
  66
1
  0
VERTEX
  8
Unknown_Area_Type
  10
506918.153
  20
4421659.590
  0
VERTEX
  8
Unknown_Area_Type
  10
507067.822
  20
4421659.590
  0
VERTEX
  8
Unknown_Area_Type
  10
507067.822
  20
4421496.023
  0
VERTEX
  8
Unknown_Area_Type
  10
506918.153
  20
4421496.023
  0
VERTEX
  8
Unknown_Area_Type
  10
506918.153
  20
4421659.590
  0
SEQEND
  8
Unknown_Area_Type
  0
INSERT
  8
FeatureAttribs
  2
FEATURE
  41
1
  42
1
  43
1
  50
0
  10
506057.919
  20
4421586.183
 66
1
  0
ATTRIB
  8
FeatureAttribs
 70
0
  1
bridge
  2
NAME
  10
506057.919
  20
4421586.183
 40
366.53038
  0
SEQEND
  0
POLYLINE
  8
Unknown_Area_Type
  70
1
  66
1
  0
VERTEX
  8
Unknown_Area_Type
  10
506187.036
  20
4421703.658
  0
VERTEX
  8
Unknown_Area_Type
  10
506187.036
  20
4421468.708
  0
VERTEX
  8
Unknown_Area_Type
  10
505928.802
  20
4421468.708
  0
VERTEX
  8
Unknown_Area_Type
  10
505928.802
  20
4421703.658
  0
VERTEX
  8
Unknown_Area_Type
  10
506187.036
  20
4421703.658
  0
SEQEND
  8
Unknown_Area_Type
  0
INSERT
  8
FeatureAttribs
  2
FEATURE
  41
1
  42
1
  43
1
  50
0
  10
500704.869
  20
4419993.391
 66
1
  0
ATTRIB
  8
FeatureAttribs
 70
0
  1
culvert
  2
NAME
  10
500704.869
  20
4419993.391
 40
366.53038
  0
SEQEND
  0
POLYLINE
  8
Unknown_Area_Type
  70
1
  66
1
  0
VERTEX
  8
Unknown_Area_Type
  10
500535.536
  20
4420130.974
  0
VERTEX
  8
Unknown_Area_Type
  10
500874.202
  20
4420130.974
  0
VERTEX
  8
Unknown_Area_Type
  10
500874.202
  20
4419855.808
  0
VERTEX
  8
Unknown_Area_Type
  10
500535.536
  20
4419855.808
  0
VERTEX
  8
Unknown_Area_Type
  10
500535.536
  20
4420130.974
  0
SEQEND
  8
Unknown_Area_Type
  0
INSERT
  8
FeatureAttribs
  2
FEATURE
  41
1
  42
1
  43
1
  50
0
  10
534472.590
  20
4420023.693
 66
1
  0
ATTRIB
  8
FeatureAttribs
 70
0
  1
culvert
  2
NAME
  10
534472.590
  20
4420023.693
 40
366.53038
  0
SEQEND
  0
POLYLINE
  8
Unknown_Area_Type
  70
1
  66
1
  0
VERTEX
  8
Unknown_Area_Type
  10
534353.302
  20
4420127.076
  0
VERTEX
  8
Unknown_Area_Type
  10
534591.878
  20
4420127.076
  0
VERTEX
  8
Unknown_Area_Type
  10
534591.878
  20
4419920.310
  0
VERTEX
  8
Unknown_Area_Type
  10
534353.302
  20
4419920.310
  0
VERTEX
  8
Unknown_Area_Type
  10
534353.302
  20
4420127.076
  0
SEQEND
  8
Unknown_Area_Type
  0
INSERT
  8
FeatureAttribs
  2
FEATURE
  41
1
  42
1
  43
1
  50
0
  10
496769.752
  20
4415823.556
 66
1
  0
ATTRIB
  8
FeatureAttribs
 70
0
  1
raise elevation
  2
NAME
  10
496769.752
  20
4415823.556
 40
366.53038
  0
SEQEND
  0
POLYLINE
  8
Unknown_Area_Type
  70
1
  66
1
  0
VERTEX
  8
Unknown_Area_Type
  10
496629.639
  20
4415996.789
  0
VERTEX
  8
Unknown_Area_Type
  10
496909.864
  20
4415996.789
  0
VERTEX
  8
Unknown_Area_Type
  10
496909.864
  20
4415650.322
  0
VERTEX
  8
Unknown_Area_Type
  10
496629.639
  20
4415650.322
  0
VERTEX
  8
Unknown_Area_Type
  10
496629.639
  20
4415996.789
  0
SEQEND
  8
Unknown_Area_Type
  0
INSERT
  8
FeatureAttribs
  2
FEATURE
  41
1
  42
1
  43
1
  50
0
  10
536032.036
  20
4413147.033
 66
1
  0
ATTRIB
  8
FeatureAttribs
 70
0
  1
bridge
  2
NAME
  10
536032.036
  20
4413147.033
 40
366.53038
  0
SEQEND
  0
POLYLINE
  8
Unknown_Area_Type
  70
1
  66
1
  0
VERTEX
  8
Unknown_Area_Type
  10
535887.044
  20
4413289.908
  0
VERTEX
  8
Unknown_Area_Type
  10
536177.027
  20
4413289.908
  0
VERTEX
  8
Unknown_Area_Type
  10
536177.027
  20
4413004.158
  0
VERTEX
  8
Unknown_Area_Type
  10
535887.044
  20
4413004.158
  0
VERTEX
  8
Unknown_Area_Type
  10
535887.044
  20
4413289.908
  0
SEQEND
  8
Unknown_Area_Type
  0
INSERT
  8
FeatureAttribs
  2
FEATURE
  41
1
  42
1
  43
1
  50
0
  10
511926.377
  20
4413425.374
 66
1
  0
ATTRIB
  8
FeatureAttribs
 70
0
  1
culvert
  2
NAME
  10
511926.377
  20
4413425.374
 40
366.53038
  0
SEQEND
  0
POLYLINE
  8
Unknown_Area_Type
  70
1
  66
1
  0
VERTEX
  8
Unknown_Area_Type
  10
511767.627
  20
4413548.141
  0
VERTEX
  8
Unknown_Area_Type
  10
512085.127
  20
4413548.141
  0
VERTEX
  8
Unknown_Area_Type
  10
512085.127
  20
4413302.608
  0
VERTEX
  8
Unknown_Area_Type
  10
511767.627
  20
4413302.608
  0
VERTEX
  8
Unknown_Area_Type
  10
511767.627
  20
4413548.141
  0
SEQEND
  8
Unknown_Area_Type
  0
INSERT
  8
FeatureAttribs
  2
FEATURE
  41
1
  42
1
  43
1
  50
0
  10
491084.619
  20
4408783.524
 66
1
  0
ATTRIB
  8
FeatureAttribs
 70
0
  1
bridge
  2
NAME
  10
491084.619
  20
4408783.524
 40
366.53038
  0
SEQEND
  0
POLYLINE
  8
Unknown_Area_Type
  70
1
  66
1
  0
VERTEX
  8
Unknown_Area_Type
  10
490945.977
  20
4408921.108
  0
VERTEX
  8
Unknown_Area_Type
  10
491223.261
  20
4408921.108
  0
VERTEX
  8
Unknown_Area_Type
  10
491223.261
  20
4408645.941
  0
VERTEX
  8
Unknown_Area_Type
  10
490945.977
  20
4408645.941
  0
VERTEX
  8
Unknown_Area_Type
  10
490945.977
  20
4408921.108
  0
SEQEND
  8
Unknown_Area_Type
  0
INSERT
  8
FeatureAttribs
  2
FEATURE
  41
1
  42
1
  43
1
  50
0
  10
491090.969
  20
4408500.949
 66
1
  0
ATTRIB
  8
FeatureAttribs
 70
0
  1
bridge
  2
NAME
  10
491090.969
  20
4408500.949
 40
366.53038
  0
SEQEND
  0
POLYLINE
  8
Unknown_Area_Type
  70
1
  66
1
  0
VERTEX
  8
Unknown_Area_Type
  10
490956.561
  20
4408645.941
  0
VERTEX
  8
Unknown_Area_Type
  10
491225.377
  20
4408645.941
  0
VERTEX
  8
Unknown_Area_Type
  10
491225.377
  20
4408355.958
  0
VERTEX
  8
Unknown_Area_Type
  10
490956.561
  20
4408355.958
  0
VERTEX
  8
Unknown_Area_Type
  10
490956.561
  20
4408645.941
  0
SEQEND
  8
Unknown_Area_Type
  0
INSERT
  8
FeatureAttribs
  2
FEATURE
  41
1
  42
1
  43
1
  50
0
  10
534377.558
  20
4407148.530
 66
1
  0
ATTRIB
  8
FeatureAttribs
 70
0
  1
culvert
  2
NAME
  10
534377.558
  20
4407148.530
 40
366.53038
  0
SEQEND
  0
POLYLINE
  8
Unknown_Area_Type
  70
1
  66
1
  0
VERTEX
  8
Unknown_Area_Type
  10
534234.915
  20
4407261.845
  0
VERTEX
  8
Unknown_Area_Type
  10
534520.201
  20
4407261.845
  0
VERTEX
  8
Unknown_Area_Type
  10
534520.201
  20
4407035.216
  0
VERTEX
  8
Unknown_Area_Type
  10
534234.915
  20
4407035.216
  0
VERTEX
  8
Unknown_Area_Type
  10
534234.915
  20
4407261.845
  0
SEQEND
  8
Unknown_Area_Type
  0
INSERT
  8
FeatureAttribs
  2
FEATURE
  41
1
  42
1
  43
1
  50
0
  10
515165.936
  20
4405510.099
 66
1
  0
ATTRIB
  8
FeatureAttribs
 70
0
  1
2 bridges
  2
NAME
  10
515165.936
  20
4405510.099
 40
366.53038
  0
SEQEND
  0
POLYLINE
  8
Unknown_Area_Type
  70
1
  66
1
  0
VERTEX
  8
Unknown_Area_Type
  10
515056.927
  20
4405629.691
  0
VERTEX
  8
Unknown_Area_Type
  10
515274.944
  20
4405629.691
  0
VERTEX
  8
Unknown_Area_Type
  10
515274.944
  20
4405390.508
  0
VERTEX
  8
Unknown_Area_Type
  10
515056.927
  20
4405390.508
  0
VERTEX
  8
Unknown_Area_Type
  10
515056.927
  20
4405629.691
  0
SEQEND
  8
Unknown_Area_Type
  0
INSERT
  8
FeatureAttribs
  2
FEATURE
  41
1
  42
1
  43
1
  50
0
  10
528660.744
  20
4403956.466
 66
1
  0
ATTRIB
  8
FeatureAttribs
 70
0
  1
culvert
  2
NAME
  10
528660.744
  20
4403956.466
 40
366.53038
  0
SEQEND
  0
POLYLINE
  8
Unknown_Area_Type
  70
1
  66
1
  0
VERTEX
  8
Unknown_Area_Type
  10
528478.711
  20
4404099.341
  0
VERTEX
  8
Unknown_Area_Type
  10
528842.777
  20
4404099.341
  0
VERTEX
  8
Unknown_Area_Type
  10
528842.777
  20
4403813.591
  0
VERTEX
  8
Unknown_Area_Type
  10
528478.711
  20
4403813.591
  0
VERTEX
  8
Unknown_Area_Type
  10
528478.711
  20
4404099.341
  0
SEQEND
  8
Unknown_Area_Type
  0
INSERT
  8
FeatureAttribs
  2
FEATURE
  41
1
  42
1
  43
1
  50
0
  10
535638.336
  20
4403942.708
 66
1
  0
ATTRIB
  8
FeatureAttribs
 70
0
  1
culvert
  2
NAME
  10
535638.336
  20
4403942.708
 40
366.53038
  0
SEQEND
  0
POLYLINE
  8
Unknown_Area_Type
  70
1
  66
1
  0
VERTEX
  8
Unknown_Area_Type
  10
535476.411
  20
4404088.758
  0
VERTEX
  8
Unknown_Area_Type
  10
535800.261
  20
4404088.758
  0
VERTEX
  8
Unknown_Area_Type
  10
535800.261
  20
4403796.658
  0
VERTEX
  8
Unknown_Area_Type
  10
535476.411
  20
4403796.658
  0
VERTEX
  8
Unknown_Area_Type
  10
535476.411
  20
4404088.758
  0
SEQEND
  8
Unknown_Area_Type
  0
INSERT
  8
FeatureAttribs
  2
FEATURE
  41
1
  42
1
  43
1
  50
0
  10
538552.986
  20
4403942.708
 66
1
  0
ATTRIB
  8
FeatureAttribs
 70
0
  1
culvert
  2
NAME
  10
538552.986
  20
4403942.708
 40
366.53038
  0
SEQEND
  0
POLYLINE
  8
Unknown_Area_Type
  70
1
  66
1
  0
VERTEX
  8
Unknown_Area_Type
  10
538372.011
  20
4404116.274
  0
VERTEX
  8
Unknown_Area_Type
  10
538733.961
  20
4404116.274
  0
VERTEX
  8
Unknown_Area_Type
  10
538733.961
  20
4403769.141
  0
VERTEX
  8
Unknown_Area_Type
  10
538372.011
  20
4403769.141
  0
VERTEX
  8
Unknown_Area_Type
  10
538372.011
  20
4404116.274
  0
SEQEND
  8
Unknown_Area_Type
  0
INSERT
  8
FeatureAttribs
  2
FEATURE
  41
1
  42
1
  43
1
  50
0
  10
539071.569
  20
4403951.174
 66
1
  0
ATTRIB
  8
FeatureAttribs
 70
0
  1
culvert
  2
NAME
  10
539071.569
  20
4403951.174
 40
366.53038
  0
SEQEND
  0
POLYLINE
  8
Unknown_Area_Type
  70
1
  66
1
  0
VERTEX
  8
Unknown_Area_Type
  10
538892.711
  20
4404103.574
  0
VERTEX
  8
Unknown_Area_Type
  10
539250.427
  20
4404103.574
  0
VERTEX
  8
Unknown_Area_Type
  10
539250.427
  20
4403798.774
  0
VERTEX
  8
Unknown_Area_Type
  10
538892.711
  20
4403798.774
  0
VERTEX
  8
Unknown_Area_Type
  10
538892.711
  20
4404103.574
  0
SEQEND
  8
Unknown_Area_Type
  0
INSERT
  8
FeatureAttribs
  2
FEATURE
  41
1
  42
1
  43
1
  50
0
  10
544876.880
  20
4404019.966
 66
1
  0
ATTRIB
  8
FeatureAttribs
 70
0
  1
culvert
  2
NAME
  10
544876.880
  20
4404019.966
 40
366.53038
  0
SEQEND
  0
POLYLINE
  8
Unknown_Area_Type
  70
1
  66
1
  0
VERTEX
  8
Unknown_Area_Type
  10
544753.761
  20
4404141.674
  0
VERTEX
  8
Unknown_Area_Type
  10
545000.000
  20
4404141.674
  0
VERTEX
  8
Unknown_Area_Type
  10
545000.000
  20
4403898.258
  0
VERTEX
  8
Unknown_Area_Type
  10
544753.761
  20
4403898.258
  0
VERTEX
  8
Unknown_Area_Type
  10
544753.761
  20
4404141.674
  0
SEQEND
  8
Unknown_Area_Type
  0
INSERT
  8
FeatureAttribs
  2
FEATURE
  41
1
  42
1
  43
1
  50
0
  10
515087.619
  20
4402353.091
 66
1
  0
ATTRIB
  8
FeatureAttribs
 70
0
  1
culvert
  2
NAME
  10
515087.619
  20
4402353.091
 40
366.53038
  0
SEQEND
  0
POLYLINE
  8
Unknown_Area_Type
  70
1
  66
1
  0
VERTEX
  8
Unknown_Area_Type
  10
514938.394
  20
4402503.374
  0
VERTEX
  8
Unknown_Area_Type
  10
515236.844
  20
4402503.374
  0
VERTEX
  8
Unknown_Area_Type
  10
515236.844
  20
4402202.808
  0
VERTEX
  8
Unknown_Area_Type
  10
514938.394
  20
4402202.808
  0
VERTEX
  8
Unknown_Area_Type
  10
514938.394
  20
4402503.374
  0
SEQEND
  8
Unknown_Area_Type
  0
INSERT
  8
FeatureAttribs
  2
FEATURE
  41
1
  42
1
  43
1
  50
0
  10
512199.427
  20
4402304.408
 66
1
  0
ATTRIB
  8
FeatureAttribs
 70
0
  1
culvert
  2
NAME
  10
512199.427
  20
4402304.408
 40
366.53038
  0
SEQEND
  0
POLYLINE
  8
Unknown_Area_Type
  70
1
  66
1
  0
VERTEX
  8
Unknown_Area_Type
  10
512377.227
  20
4402422.941
  0
VERTEX
  8
Unknown_Area_Type
  10
512377.227
  20
4402185.874
  0
VERTEX
  8
Unknown_Area_Type
  10
512021.627
  20
4402185.874
  0
VERTEX
  8
Unknown_Area_Type
  10
512021.627
  20
4402422.941
  0
VERTEX
  8
Unknown_Area_Type
  10
512377.227
  20
4402422.941
  0
SEQEND
  8
Unknown_Area_Type
  0
INSERT
  8
FeatureAttribs
  2
FEATURE
  41
1
  42
1
  43
1
  50
0
  10
506645.294
  20
4402316.049
 66
1
  0
ATTRIB
  8
FeatureAttribs
 70
0
  1
culvert
  2
NAME
  10
506645.294
  20
4402316.049
 40
366.53038
  0
SEQEND
  0
POLYLINE
  8
Unknown_Area_Type
  70
1
  66
1
  0
VERTEX
  8
Unknown_Area_Type
  10
506820.977
  20
4402456.808
  0
VERTEX
  8
Unknown_Area_Type
  10
506820.977
  20
4402175.291
  0
VERTEX
  8
Unknown_Area_Type
  10
506469.611
  20
4402175.291
  0
VERTEX
  8
Unknown_Area_Type
  10
506469.611
  20
4402456.808
  0
VERTEX
  8
Unknown_Area_Type
  10
506820.977
  20
4402456.808
  0
SEQEND
  8
Unknown_Area_Type
  0
INSERT
  8
FeatureAttribs
  2
FEATURE
  41
1
  42
1
  43
1
  50
0
  10
503299.902
  20
4402352.033
 66
1
  0
ATTRIB
  8
FeatureAttribs
 70
0
  1
culvert
  2
NAME
  10
503299.902
  20
4402352.033
 40
366.53038
  0
SEQEND
  0
POLYLINE
  8
Unknown_Area_Type
  70
1
  66
1
  0
VERTEX
  8
Unknown_Area_Type
  10
503463.944
  20
4402486.441
  0
VERTEX
  8
Unknown_Area_Type
  10
503463.944
  20
4402217.624
  0
VERTEX
  8
Unknown_Area_Type
  10
503135.861
  20
4402217.624
  0
VERTEX
  8
Unknown_Area_Type
  10
503135.861
  20
4402486.441
  0
VERTEX
  8
Unknown_Area_Type
  10
503463.944
  20
4402486.441
  0
SEQEND
  8
Unknown_Area_Type
  0
INSERT
  8
FeatureAttribs
  2
FEATURE
  41
1
  42
1
  43
1
  50
0
  10
531231.436
  20
4396951.358
 66
1
  0
ATTRIB
  8
FeatureAttribs
 70
0
  1
bridge
  2
NAME
  10
531231.436
  20
4396951.358
 40
366.53038
  0
SEQEND
  0
POLYLINE
  8
Unknown_Area_Type
  70
1
  66
1
  0
VERTEX
  8
Unknown_Area_Type
  10
531056.811
  20
4397057.191
  0
VERTEX
  8
Unknown_Area_Type
  10
531406.061
  20
4397057.191
  0
VERTEX
  8
Unknown_Area_Type
  10
531406.061
  20
4396845.524
  0
VERTEX
  8
Unknown_Area_Type
  10
531056.811
  20
4396845.524
  0
VERTEX
  8
Unknown_Area_Type
  10
531056.811
  20
4397057.191
  0
SEQEND
  8
Unknown_Area_Type
  0
INSERT
  8
FeatureAttribs
  2
FEATURE
  41
1
  42
1
  43
1
  50
0
  10
536003.877
  20
4395786.556
 66
1
  0
ATTRIB
  8
FeatureAttribs
 70
0
  1
vegetation
  2
NAME
  10
536003.877
  20
4395786.556
 40
366.53038
  0
SEQEND
  0
POLYLINE
  8
Unknown_Area_Type
  70
1
  66
1
  0
VERTEX
  8
Unknown_Area_Type
  10
535947.676
  20
4395836.596
  0
VERTEX
  8
Unknown_Area_Type
  10
536060.078
  20
4395836.596
  0
VERTEX
  8
Unknown_Area_Type
  10
536060.078
  20
4395736.516
  0
VERTEX
  8
Unknown_Area_Type
  10
535947.676
  20
4395736.516
  0
VERTEX
  8
Unknown_Area_Type
  10
535947.676
  20
4395836.596
  0
SEQEND
  8
Unknown_Area_Type
  0
INSERT
  8
FeatureAttribs
  2
FEATURE
  41
1
  42
1
  43
1
  50
0
  10
505567.911
  20
4387832.758
 66
1
  0
ATTRIB
  8
FeatureAttribs
 70
0
  1
bridge
  2
NAME
  10
505567.911
  20
4387832.758
 40
366.53038
  0
SEQEND
  0
POLYLINE
  8
Unknown_Area_Type
  70
1
  66
1
  0
VERTEX
  8
Unknown_Area_Type
  10
505438.794
  20
4387934.358
  0
VERTEX
  8
Unknown_Area_Type
  10
505697.027
  20
4387934.358
  0
VERTEX
  8
Unknown_Area_Type
  10
505697.027
  20
4387731.158
  0
VERTEX
  8
Unknown_Area_Type
  10
505438.794
  20
4387731.158
  0
VERTEX
  8
Unknown_Area_Type
  10
505438.794
  20
4387934.358
  0
SEQEND
  8
Unknown_Area_Type
  0
INSERT
  8
FeatureAttribs
  2
FEATURE
  41
1
  42
1
  43
1
  50
0
  10
522704.444
  20
4387844.399
 66
1
  0
ATTRIB
  8
FeatureAttribs
 70
0
  1
bridge
  2
NAME
  10
522704.444
  20
4387844.399
 40
366.53038
  0
SEQEND
  0
POLYLINE
  8
Unknown_Area_Type
  70
1
  66
1
  0
VERTEX
  8
Unknown_Area_Type
  10
522568.977
  20
4387955.524
  0
VERTEX
  8
Unknown_Area_Type
  10
522839.911
  20
4387955.524
  0
VERTEX
  8
Unknown_Area_Type
  10
522839.911
  20
4387733.274
  0
VERTEX
  8
Unknown_Area_Type
  10
522568.977
  20
4387733.274
  0
VERTEX
  8
Unknown_Area_Type
  10
522568.977
  20
4387955.524
  0
SEQEND
  8
Unknown_Area_Type
  0
INSERT
  8
FeatureAttribs
  2
FEATURE
  41
1
  42
1
  43
1
  50
0
  10
528075.486
  20
4388773.616
 66
1
  0
ATTRIB
  8
FeatureAttribs
 70
0
  1
bridge
  2
NAME
  10
528075.486
  20
4388773.616
 40
366.53038
  0
SEQEND
  0
POLYLINE
  8
Unknown_Area_Type
  70
1
  66
1
  0
VERTEX
  8
Unknown_Area_Type
  10
527964.361
  20
4388903.791
  0
VERTEX
  8
Unknown_Area_Type
  10
528186.611
  20
4388903.791
  0
VERTEX
  8
Unknown_Area_Type
  10
528186.611
  20
4388643.441
  0
VERTEX
  8
Unknown_Area_Type
  10
527964.361
  20
4388643.441
  0
VERTEX
  8
Unknown_Area_Type
  10
527964.361
  20
4388903.791
  0
SEQEND
  8
Unknown_Area_Type
  0
INSERT
  8
FeatureAttribs
  2
FEATURE
  41
1
  42
1
  43
1
  50
0
  10
503942.311
  20
4386346.858
 66
1
  0
ATTRIB
  8
FeatureAttribs
 70
0
  1
bridge
  2
NAME
  10
503942.311
  20
4386346.858
 40
366.53038
  0
SEQEND
  0
POLYLINE
  8
Unknown_Area_Type
  70
1
  66
1
  0
VERTEX
  8
Unknown_Area_Type
  10
504062.961
  20
4386463.274
  0
VERTEX
  8
Unknown_Area_Type
  10
504062.961
  20
4386230.441
  0
VERTEX
  8
Unknown_Area_Type
  10
503821.661
  20
4386230.441
  0
VERTEX
  8
Unknown_Area_Type
  10
503821.661
  20
4386463.274
  0
VERTEX
  8
Unknown_Area_Type
  10
504062.961
  20
4386463.274
  0
SEQEND
  8
Unknown_Area_Type
  0
INSERT
  8
FeatureAttribs
  2
FEATURE
  41
1
  42
1
  43
1
  50
0
  10
490331.086
  20
4386203.983
 66
1
  0
ATTRIB
  8
FeatureAttribs
 70
0
  1
bridge
  2
NAME
  10
490331.086
  20
4386203.983
 40
366.53038
  0
SEQEND
  0
POLYLINE
  8
Unknown_Area_Type
  70
1
  66
1
  0
VERTEX
  8
Unknown_Area_Type
  10
490505.711
  20
4386344.741
  0
VERTEX
  8
Unknown_Area_Type
  10
490505.711
  20
4386063.224
  0
VERTEX
  8
Unknown_Area_Type
  10
490156.461
  20
4386063.224
  0
VERTEX
  8
Unknown_Area_Type
  10
490156.461
  20
4386344.741
  0
VERTEX
  8
Unknown_Area_Type
  10
490505.711
  20
4386344.741
  0
SEQEND
  8
Unknown_Area_Type
  0
INSERT
  8
FeatureAttribs
  2
FEATURE
  41
1
  42
1
  43
1
  50
0
  10
519501.927
  20
4384255.591
 66
1
  0
ATTRIB
  8
FeatureAttribs
 70
0
  1
culvert
  2
NAME
  10
519501.927
  20
4384255.591
 40
366.53038
  0
SEQEND
  0
POLYLINE
  8
Unknown_Area_Type
  70
1
  66
1
  0
VERTEX
  8
Unknown_Area_Type
  10
519652.211
  20
4384382.591
  0
VERTEX
  8
Unknown_Area_Type
  10
519652.211
  20
4384128.591
  0
VERTEX
  8
Unknown_Area_Type
  10
519351.644
  20
4384128.591
  0
VERTEX
  8
Unknown_Area_Type
  10
519351.644
  20
4384382.591
  0
VERTEX
  8
Unknown_Area_Type
  10
519652.211
  20
4384382.591
  0
SEQEND
  8
Unknown_Area_Type
  0
INSERT
  8
FeatureAttribs
  2
FEATURE
  41
1
  42
1
  43
1
  50
0
  10
526339.819
  20
4384646.116
 66
1
  0
ATTRIB
  8
FeatureAttribs
 70
0
  1
bridge
  2
NAME
  10
526339.819
  20
4384646.116
 40
366.53038
  0
SEQEND
  0
POLYLINE
  8
Unknown_Area_Type
  70
1
  66
1
  0
VERTEX
  8
Unknown_Area_Type
  10
526220.227
  20
4384753.008
  0
VERTEX
  8
Unknown_Area_Type
  10
526459.411
  20
4384753.008
  0
VERTEX
  8
Unknown_Area_Type
  10
526459.411
  20
4384539.224
  0
VERTEX
  8
Unknown_Area_Type
  10
526220.227
  20
4384539.224
  0
VERTEX
  8
Unknown_Area_Type
  10
526220.227
  20
4384753.008
  0
SEQEND
  8
Unknown_Area_Type
  0
INSERT
  8
FeatureAttribs
  2
FEATURE
  41
1
  42
1
  43
1
  50
0
  10
492726.094
  20
4380693.241
 66
1
  0
ATTRIB
  8
FeatureAttribs
 70
0
  1
bridge
  2
NAME
  10
492726.094
  20
4380693.241
 40
366.53038
  0
SEQEND
  0
POLYLINE
  8
Unknown_Area_Type
  70
1
  66
1
  0
VERTEX
  8
Unknown_Area_Type
  10
492520.777
  20
4380856.224
  0
VERTEX
  8
Unknown_Area_Type
  10
492931.411
  20
4380856.224
  0
VERTEX
  8
Unknown_Area_Type
  10
492931.411
  20
4380530.258
  0
VERTEX
  8
Unknown_Area_Type
  10
492520.777
  20
4380530.258
  0
VERTEX
  8
Unknown_Area_Type
  10
492520.777
  20
4380856.224
  0
SEQEND
  8
Unknown_Area_Type
  0
INSERT
  8
FeatureAttribs
  2
FEATURE
  41
1
  42
1
  43
1
  50
0
  10
505733.691
  20
4380994.104
 66
1
  0
ATTRIB
  8
FeatureAttribs
 70
0
  1
raise elevation
  2
NAME
  10
505733.691
  20
4380994.104
 40
366.53038
  0
SEQEND
  0
POLYLINE
  8
Unknown_Area_Type
  70
1
  66
1
  0
VERTEX
  8
Unknown_Area_Type
  10
505624.054
  20
4381094.725
  0
VERTEX
  8
Unknown_Area_Type
  10
505843.328
  20
4381094.725
  0
VERTEX
  8
Unknown_Area_Type
  10
505843.328
  20
4380893.483
  0
VERTEX
  8
Unknown_Area_Type
  10
505624.054
  20
4380893.483
  0
VERTEX
  8
Unknown_Area_Type
  10
505624.054
  20
4381094.725
  0
SEQEND
  8
Unknown_Area_Type
  0
INSERT
  8
FeatureAttribs
  2
FEATURE
  41
1
  42
1
  43
1
  50
0
  10
539192.219
  20
4379259.199
 66
1
  0
ATTRIB
  8
FeatureAttribs
 70
0
  1
culvert
  2
NAME
  10
539192.219
  20
4379259.199
 40
366.53038
  0
SEQEND
  0
POLYLINE
  8
Unknown_Area_Type
  70
1
  66
1
  0
VERTEX
  8
Unknown_Area_Type
  10
539021.827
  20
4379393.608
  0
VERTEX
  8
Unknown_Area_Type
  10
539362.611
  20
4379393.608
  0
VERTEX
  8
Unknown_Area_Type
  10
539362.611
  20
4379124.791
  0
VERTEX
  8
Unknown_Area_Type
  10
539021.827
  20
4379124.791
  0
VERTEX
  8
Unknown_Area_Type
  10
539021.827
  20
4379393.608
  0
SEQEND
  8
Unknown_Area_Type
  0
INSERT
  8
FeatureAttribs
  2
FEATURE
  41
1
  42
1
  43
1
  50
0
  10
535982.294
  20
4379202.049
 66
1
  0
ATTRIB
  8
FeatureAttribs
 70
0
  1
culvert
  2
NAME
  10
535982.294
  20
4379202.049
 40
366.53038
  0
SEQEND
  0
POLYLINE
  8
Unknown_Area_Type
  70
1
  66
1
  0
VERTEX
  8
Unknown_Area_Type
  10
535804.494
  20
4379323.758
  0
VERTEX
  8
Unknown_Area_Type
  10
536160.094
  20
4379323.758
  0
VERTEX
  8
Unknown_Area_Type
  10
536160.094
  20
4379080.341
  0
VERTEX
  8
Unknown_Area_Type
  10
535804.494
  20
4379080.341
  0
VERTEX
  8
Unknown_Area_Type
  10
535804.494
  20
4379323.758
  0
SEQEND
  8
Unknown_Area_Type
  0
INSERT
  8
FeatureAttribs
  2
FEATURE
  41
1
  42
1
  43
1
  50
0
  10
520015.219
  20
4377724.616
 66
1
  0
ATTRIB
  8
FeatureAttribs
 70
0
  1
bridge
  2
NAME
  10
520015.219
  20
4377724.616
 40
366.53038
  0
SEQEND
  0
POLYLINE
  8
Unknown_Area_Type
  70
1
  66
1
  0
VERTEX
  8
Unknown_Area_Type
  10
519855.411
  20
4377850.558
  0
VERTEX
  8
Unknown_Area_Type
  10
520175.027
  20
4377850.558
  0
VERTEX
  8
Unknown_Area_Type
  10
520175.027
  20
4377598.674
  0
VERTEX
  8
Unknown_Area_Type
  10
519855.411
  20
4377598.674
  0
VERTEX
  8
Unknown_Area_Type
  10
519855.411
  20
4377850.558
  0
SEQEND
  8
Unknown_Area_Type
  0
INSERT
  8
FeatureAttribs
  2
FEATURE
  41
1
  42
1
  43
1
  50
0
  10
539207.036
  20
4374292.441
 66
1
  0
ATTRIB
  8
FeatureAttribs
 70
0
  1
culvert
  2
NAME
  10
539207.036
  20
4374292.441
 40
366.53038
  0
SEQEND
  0
POLYLINE
  8
Unknown_Area_Type
  70
1
  66
1
  0
VERTEX
  8
Unknown_Area_Type
  10
539085.327
  20
4374389.808
  0
VERTEX
  8
Unknown_Area_Type
  10
539328.744
  20
4374389.808
  0
VERTEX
  8
Unknown_Area_Type
  10
539328.744
  20
4374195.074
  0
VERTEX
  8
Unknown_Area_Type
  10
539085.327
  20
4374195.074
  0
VERTEX
  8
Unknown_Area_Type
  10
539085.327
  20
4374389.808
  0
SEQEND
  8
Unknown_Area_Type
  0
INSERT
  8
FeatureAttribs
  2
FEATURE
  41
1
  42
1
  43
1
  50
0
  10
539316.037
  20
4374804.905
 66
1
  0
ATTRIB
  8
FeatureAttribs
 70
0
  1
processing error
  2
NAME
  10
539316.037
  20
4374804.905
 40
366.53038
  0
SEQEND
  0
POLYLINE
  8
Unknown_Area_Type
  70
1
  66
1
  0
VERTEX
  8
Unknown_Area_Type
  10
538861.884
  20
4374912.633
  0
VERTEX
  8
Unknown_Area_Type
  10
539770.189
  20
4374912.633
  0
VERTEX
  8
Unknown_Area_Type
  10
539770.189
  20
4374697.177
  0
VERTEX
  8
Unknown_Area_Type
  10
538861.884
  20
4374697.177
  0
VERTEX
  8
Unknown_Area_Type
  10
538861.884
  20
4374912.633
  0
SEQEND
  8
Unknown_Area_Type
  0
INSERT
  8
FeatureAttribs
  2
FEATURE
  41
1
  42
1
  43
1
  50
0
  10
536581.311
  20
4373394.974
 66
1
  0
ATTRIB
  8
FeatureAttribs
 70
0
  1
culvert
  2
NAME
  10
536581.311
  20
4373394.974
 40
366.53038
  0
SEQEND
  0
POLYLINE
  8
Unknown_Area_Type
  70
1
  66
1
  0
VERTEX
  8
Unknown_Area_Type
  10
536386.577
  20
4373538.908
  0
VERTEX
  8
Unknown_Area_Type
  10
536776.044
  20
4373538.908
  0
VERTEX
  8
Unknown_Area_Type
  10
536776.044
  20
4373251.041
  0
VERTEX
  8
Unknown_Area_Type
  10
536386.577
  20
4373251.041
  0
VERTEX
  8
Unknown_Area_Type
  10
536386.577
  20
4373538.908
  0
SEQEND
  8
Unknown_Area_Type
  0
INSERT
  8
FeatureAttribs
  2
FEATURE
  41
1
  42
1
  43
1
  50
0
  10
519807.510
  20
4370574.139
 66
1
  0
ATTRIB
  8
FeatureAttribs
 70
0
  1
raise elevation
  2
NAME
  10
519807.510
  20
4370574.139
 40
366.53038
  0
SEQEND
  0
POLYLINE
  8
Unknown_Area_Type
  70
1
  66
1
  0
VERTEX
  8
Unknown_Area_Type
  10
519696.497
  20
4370653.820
  0
VERTEX
  8
Unknown_Area_Type
  10
519918.522
  20
4370653.820
  0
VERTEX
  8
Unknown_Area_Type
  10
519918.522
  20
4370494.458
  0
VERTEX
  8
Unknown_Area_Type
  10
519696.497
  20
4370494.458
  0
VERTEX
  8
Unknown_Area_Type
  10
519696.497
  20
4370653.820
  0
SEQEND
  8
Unknown_Area_Type
  0
INSERT
  8
FeatureAttribs
  2
FEATURE
  41
1
  42
1
  43
1
  50
0
  10
507422.111
  20
4369347.908
 66
1
  0
ATTRIB
  8
FeatureAttribs
 70
0
  1
culvert
  2
NAME
  10
507422.111
  20
4369347.908
 40
366.53038
  0
SEQEND
  0
POLYLINE
  8
Unknown_Area_Type
  70
1
  66
1
  0
VERTEX
  8
Unknown_Area_Type
  10
507297.227
  20
4369453.741
  0
VERTEX
  8
Unknown_Area_Type
  10
507546.994
  20
4369453.741
  0
VERTEX
  8
Unknown_Area_Type
  10
507546.994
  20
4369242.074
  0
VERTEX
  8
Unknown_Area_Type
  10
507297.227
  20
4369242.074
  0
VERTEX
  8
Unknown_Area_Type
  10
507297.227
  20
4369453.741
  0
SEQEND
  8
Unknown_Area_Type
  0
INSERT
  8
FeatureAttribs
  2
FEATURE
  41
1
  42
1
  43
1
  50
0
  10
503284.027
  20
4367294.741
 66
1
  0
ATTRIB
  8
FeatureAttribs
 70
0
  1
culvert
  2
NAME
  10
503284.027
  20
4367294.741
 40
366.53038
  0
SEQEND
  0
POLYLINE
  8
Unknown_Area_Type
  70
1
  66
1
  0
VERTEX
  8
Unknown_Area_Type
  10
503118.927
  20
4367432.324
  0
VERTEX
  8
Unknown_Area_Type
  10
503449.127
  20
4367432.324
  0
VERTEX
  8
Unknown_Area_Type
  10
503449.127
  20
4367157.158
  0
VERTEX
  8
Unknown_Area_Type
  10
503118.927
  20
4367157.158
  0
VERTEX
  8
Unknown_Area_Type
  10
503118.927
  20
4367432.324
  0
SEQEND
  8
Unknown_Area_Type
  0
INSERT
  8
FeatureAttribs
  2
FEATURE
  41
1
  42
1
  43
1
  50
0
  10
515150.061
  20
4368101.191
 66
1
  0
ATTRIB
  8
FeatureAttribs
 70
0
  1
culvert on road
  2
NAME
  10
515150.061
  20
4368101.191
 40
366.53038
  0
SEQEND
  0
POLYLINE
  8
Unknown_Area_Type
  70
1
  66
1
  0
VERTEX
  8
Unknown_Area_Type
  10
515283.411
  20
4368226.074
  0
VERTEX
  8
Unknown_Area_Type
  10
515283.411
  20
4367976.308
  0
VERTEX
  8
Unknown_Area_Type
  10
515016.711
  20
4367976.308
  0
VERTEX
  8
Unknown_Area_Type
  10
515016.711
  20
4368226.074
  0
VERTEX
  8
Unknown_Area_Type
  10
515283.411
  20
4368226.074
  0
SEQEND
  8
Unknown_Area_Type
  0
INSERT
  8
FeatureAttribs
  2
FEATURE
  41
1
  42
1
  43
1
  50
0
  10
516023.186
  20
4367906.458
 66
1
  0
ATTRIB
  8
FeatureAttribs
 70
0
  1
culvert on road
  2
NAME
  10
516023.186
  20
4367906.458
 40
366.53038
  0
SEQEND
  0
POLYLINE
  8
Unknown_Area_Type
  70
1
  66
1
  0
VERTEX
  8
Unknown_Area_Type
  10
516161.827
  20
4368020.758
  0
VERTEX
  8
Unknown_Area_Type
  10
516161.827
  20
4367792.158
  0
VERTEX
  8
Unknown_Area_Type
  10
515884.544
  20
4367792.158
  0
VERTEX
  8
Unknown_Area_Type
  10
515884.544
  20
4368020.758
  0
VERTEX
  8
Unknown_Area_Type
  10
516161.827
  20
4368020.758
  0
SEQEND
  8
Unknown_Area_Type
  0
INSERT
  8
FeatureAttribs
  2
FEATURE
  41
1
  42
1
  43
1
  50
0
  10
516996.852
  20
4367615.416
 66
1
  0
ATTRIB
  8
FeatureAttribs
 70
0
  1
culvert on road
  2
NAME
  10
516996.852
  20
4367615.416
 40
366.53038
  0
SEQEND
  0
POLYLINE
  8
Unknown_Area_Type
  70
1
  66
1
  0
VERTEX
  8
Unknown_Area_Type
  10
517154.544
  20
4367722.308
  0
VERTEX
  8
Unknown_Area_Type
  10
517154.544
  20
4367508.524
  0
VERTEX
  8
Unknown_Area_Type
  10
516839.161
  20
4367508.524
  0
VERTEX
  8
Unknown_Area_Type
  10
516839.161
  20
4367722.308
  0
VERTEX
  8
Unknown_Area_Type
  10
517154.544
  20
4367722.308
  0
SEQEND
  8
Unknown_Area_Type
  0
INSERT
  8
FeatureAttribs
  2
FEATURE
  41
1
  42
1
  43
1
  50
0
  10
521546.627
  20
4367030.158
 66
1
  0
ATTRIB
  8
FeatureAttribs
 70
0
  1
culvert
  2
NAME
  10
521546.627
  20
4367030.158
 40
366.53038
  0
SEQEND
  0
POLYLINE
  8
Unknown_Area_Type
  70
1
  66
1
  0
VERTEX
  8
Unknown_Area_Type
  10
521674.686
  20
4367163.508
  0
VERTEX
  8
Unknown_Area_Type
  10
521674.686
  20
4366896.808
  0
VERTEX
  8
Unknown_Area_Type
  10
521418.569
  20
4366896.808
  0
VERTEX
  8
Unknown_Area_Type
  10
521418.569
  20
4367163.508
  0
VERTEX
  8
Unknown_Area_Type
  10
521674.686
  20
4367163.508
  0
SEQEND
  8
Unknown_Area_Type
  0
INSERT
  8
FeatureAttribs
  2
FEATURE
  41
1
  42
1
  43
1
  50
0
  10
522962.677
  20
4367053.441
 66
1
  0
ATTRIB
  8
FeatureAttribs
 70
0
  1
culvert
  2
NAME
  10
522962.677
  20
4367053.441
 40
366.53038
  0
SEQEND
  0
POLYLINE
  8
Unknown_Area_Type
  70
1
  66
1
  0
VERTEX
  8
Unknown_Area_Type
  10
523088.619
  20
4367159.274
  0
VERTEX
  8
Unknown_Area_Type
  10
523088.619
  20
4366947.608
  0
VERTEX
  8
Unknown_Area_Type
  10
522836.736
  20
4366947.608
  0
VERTEX
  8
Unknown_Area_Type
  10
522836.736
  20
4367159.274
  0
VERTEX
  8
Unknown_Area_Type
  10
523088.619
  20
4367159.274
  0
SEQEND
  8
Unknown_Area_Type
  0
INSERT
  8
FeatureAttribs
  2
FEATURE
  41
1
  42
1
  43
1
  50
0
  10
526261.502
  20
4366769.808
 66
1
  0
ATTRIB
  8
FeatureAttribs
 70
0
  1
culvert
  2
NAME
  10
526261.502
  20
4366769.808
 40
366.53038
  0
SEQEND
  0
POLYLINE
  8
Unknown_Area_Type
  70
1
  66
1
  0
VERTEX
  8
Unknown_Area_Type
  10
526358.869
  20
4366875.641
  0
VERTEX
  8
Unknown_Area_Type
  10
526358.869
  20
4366663.974
  0
VERTEX
  8
Unknown_Area_Type
  10
526164.136
  20
4366663.974
  0
VERTEX
  8
Unknown_Area_Type
  10
526164.136
  20
4366875.641
  0
VERTEX
  8
Unknown_Area_Type
  10
526358.869
  20
4366875.641
  0
SEQEND
  8
Unknown_Area_Type
  0
INSERT
  8
FeatureAttribs
  2
FEATURE
  41
1
  42
1
  43
1
  50
0
  10
530029.857
  20
4364246.656
 66
1
  0
ATTRIB
  8
FeatureAttribs
 70
0
  1
raise elevation
  2
NAME
  10
530029.857
  20
4364246.656
 40
366.53038
  0
SEQEND
  0
POLYLINE
  8
Unknown_Area_Type
  70
1
  66
1
  0
VERTEX
  8
Unknown_Area_Type
  10
529873.216
  20
4364337.382
  0
VERTEX
  8
Unknown_Area_Type
  10
530186.498
  20
4364337.382
  0
VERTEX
  8
Unknown_Area_Type
  10
530186.498
  20
4364155.930
  0
VERTEX
  8
Unknown_Area_Type
  10
529873.216
  20
4364155.930
  0
VERTEX
  8
Unknown_Area_Type
  10
529873.216
  20
4364337.382
  0
SEQEND
  8
Unknown_Area_Type
  0
INSERT
  8
FeatureAttribs
  2
FEATURE
  41
1
  42
1
  43
1
  50
0
  10
541536.427
  20
4362190.399
 66
1
  0
ATTRIB
  8
FeatureAttribs
 70
0
  1
bridge
  2
NAME
  10
541536.427
  20
4362190.399
 40
366.53038
  0
SEQEND
  0
POLYLINE
  8
Unknown_Area_Type
  70
1
  66
1
  0
VERTEX
  8
Unknown_Area_Type
  10
541661.311
  20
4362309.991
  0
VERTEX
  8
Unknown_Area_Type
  10
541661.311
  20
4362070.808
  0
VERTEX
  8
Unknown_Area_Type
  10
541411.544
  20
4362070.808
  0
VERTEX
  8
Unknown_Area_Type
  10
541411.544
  20
4362309.991
  0
VERTEX
  8
Unknown_Area_Type
  10
541661.311
  20
4362309.991
  0
SEQEND
  8
Unknown_Area_Type
  0
INSERT
  8
FeatureAttribs
  2
FEATURE
  41
1
  42
1
  43
1
  50
0
  10
531810.344
  20
4362204.158
 66
1
  0
ATTRIB
  8
FeatureAttribs
 70
0
  1
bridge
  2
NAME
  10
531810.344
  20
4362204.158
 40
366.53038
  0
SEQEND
  0
POLYLINE
  8
Unknown_Area_Type
  70
1
  66
1
  0
VERTEX
  8
Unknown_Area_Type
  10
531958.511
  20
4362316.341
  0
VERTEX
  8
Unknown_Area_Type
  10
531958.511
  20
4362091.974
  0
VERTEX
  8
Unknown_Area_Type
  10
531662.177
  20
4362091.974
  0
VERTEX
  8
Unknown_Area_Type
  10
531662.177
  20
4362316.341
  0
VERTEX
  8
Unknown_Area_Type
  10
531958.511
  20
4362316.341
  0
SEQEND
  8
Unknown_Area_Type
  0
INSERT
  8
FeatureAttribs
  2
FEATURE
  41
1
  42
1
  43
1
  50
0
  10
505702.319
  20
4360894.999
 66
1
  0
ATTRIB
  8
FeatureAttribs
 70
0
  1
bridge
  2
NAME
  10
505702.319
  20
4360894.999
 40
366.53038
  0
SEQEND
  0
POLYLINE
  8
Unknown_Area_Type
  70
1
  66
1
  0
VERTEX
  8
Unknown_Area_Type
  10
505832.494
  20
4361033.641
  0
VERTEX
  8
Unknown_Area_Type
  10
505832.494
  20
4360756.358
  0
VERTEX
  8
Unknown_Area_Type
  10
505572.144
  20
4360756.358
  0
VERTEX
  8
Unknown_Area_Type
  10
505572.144
  20
4361033.641
  0
VERTEX
  8
Unknown_Area_Type
  10
505832.494
  20
4361033.641
  0
SEQEND
  8
Unknown_Area_Type
  0
INSERT
  8
FeatureAttribs
  2
FEATURE
  41
1
  42
1
  43
1
  50
0
  10
502499.802
  20
4358930.733
 66
1
  0
ATTRIB
  8
FeatureAttribs
 70
0
  1
culvert
  2
NAME
  10
502499.802
  20
4358930.733
 40
366.53038
  0
SEQEND
  0
POLYLINE
  8
Unknown_Area_Type
  70
1
  66
1
  0
VERTEX
  8
Unknown_Area_Type
  10
502325.177
  20
4359052.441
  0
VERTEX
  8
Unknown_Area_Type
  10
502674.427
  20
4359052.441
  0
VERTEX
  8
Unknown_Area_Type
  10
502674.427
  20
4358809.024
  0
VERTEX
  8
Unknown_Area_Type
  10
502325.177
  20
4358809.024
  0
VERTEX
  8
Unknown_Area_Type
  10
502325.177
  20
4359052.441
  0
SEQEND
  8
Unknown_Area_Type
  0
INSERT
  8
FeatureAttribs
  2
FEATURE
  41
1
  42
1
  43
1
  50
0
  10
516711.102
  20
4359089.483
 66
1
  0
ATTRIB
  8
FeatureAttribs
 70
0
  1
bridge
  2
NAME
  10
516711.102
  20
4359089.483
 40
366.53038
  0
SEQEND
  0
POLYLINE
  8
Unknown_Area_Type
  70
1
  66
1
  0
VERTEX
  8
Unknown_Area_Type
  10
516606.327
  20
4359183.674
  0
VERTEX
  8
Unknown_Area_Type
  10
516815.877
  20
4359183.674
  0
VERTEX
  8
Unknown_Area_Type
  10
516815.877
  20
4358995.291
  0
VERTEX
  8
Unknown_Area_Type
  10
516606.327
  20
4358995.291
  0
VERTEX
  8
Unknown_Area_Type
  10
516606.327
  20
4359183.674
  0
SEQEND
  8
Unknown_Area_Type
  0
INSERT
  8
FeatureAttribs
  2
FEATURE
  41
1
  42
1
  43
1
  50
0
  10
523094.969
  20
4360427.216
 66
1
  0
ATTRIB
  8
FeatureAttribs
 70
0
  1
bridge
  2
NAME
  10
523094.969
  20
4360427.216
 40
366.53038
  0
SEQEND
  0
POLYLINE
  8
Unknown_Area_Type
  70
1
  66
1
  0
VERTEX
  8
Unknown_Area_Type
  10
523206.094
  20
4360548.924
  0
VERTEX
  8
Unknown_Area_Type
  10
523206.094
  20
4360305.508
  0
VERTEX
  8
Unknown_Area_Type
  10
522983.844
  20
4360305.508
  0
VERTEX
  8
Unknown_Area_Type
  10
522983.844
  20
4360548.924
  0
VERTEX
  8
Unknown_Area_Type
  10
523206.094
  20
4360548.924
  0
SEQEND
  8
Unknown_Area_Type
  0
INSERT
  8
FeatureAttribs
  2
FEATURE
  41
1
  42
1
  43
1
  50
0
  10
527893.452
  20
4357685.074
 66
1
  0
ATTRIB
  8
FeatureAttribs
 70
0
  1
bridge
  2
NAME
  10
527893.452
  20
4357685.074
 40
366.53038
  0
SEQEND
  0
POLYLINE
  8
Unknown_Area_Type
  70
1
  66
1
  0
VERTEX
  8
Unknown_Area_Type
  10
527803.494
  20
4357799.374
  0
VERTEX
  8
Unknown_Area_Type
  10
527983.411
  20
4357799.374
  0
VERTEX
  8
Unknown_Area_Type
  10
527983.411
  20
4357570.774
  0
VERTEX
  8
Unknown_Area_Type
  10
527803.494
  20
4357570.774
  0
VERTEX
  8
Unknown_Area_Type
  10
527803.494
  20
4357799.374
  0
SEQEND
  8
Unknown_Area_Type
  0
INSERT
  8
FeatureAttribs
  2
FEATURE
  41
1
  42
1
  43
1
  50
0
  10
514130.886
  20
4354976.799
 66
1
  0
ATTRIB
  8
FeatureAttribs
 70
0
  1
bridge
  2
NAME
  10
514130.886
  20
4354976.799
 40
366.53038
  0
SEQEND
  0
POLYLINE
  8
Unknown_Area_Type
  70
1
  66
1
  0
VERTEX
  8
Unknown_Area_Type
  10
514199.677
  20
4355094.274
  0
VERTEX
  8
Unknown_Area_Type
  10
514199.677
  20
4354859.324
  0
VERTEX
  8
Unknown_Area_Type
  10
514062.094
  20
4354859.324
  0
VERTEX
  8
Unknown_Area_Type
  10
514062.094
  20
4355094.274
  0
VERTEX
  8
Unknown_Area_Type
  10
514199.677
  20
4355094.274
  0
SEQEND
  8
Unknown_Area_Type
  0
INSERT
  8
FeatureAttribs
  2
FEATURE
  41
1
  42
1
  43
1
  50
0
  10
511897.802
  20
4352309.799
 66
1
  0
ATTRIB
  8
FeatureAttribs
 70
0
  1
bridge
  2
NAME
  10
511897.802
  20
4352309.799
 40
366.53038
  0
SEQEND
  0
POLYLINE
  8
Unknown_Area_Type
  70
1
  66
1
  0
VERTEX
  8
Unknown_Area_Type
  10
511763.394
  20
4352420.924
  0
VERTEX
  8
Unknown_Area_Type
  10
512032.211
  20
4352420.924
  0
VERTEX
  8
Unknown_Area_Type
  10
512032.211
  20
4352198.674
  0
VERTEX
  8
Unknown_Area_Type
  10
511763.394
  20
4352198.674
  0
VERTEX
  8
Unknown_Area_Type
  10
511763.394
  20
4352420.924
  0
SEQEND
  8
Unknown_Area_Type
  0
INSERT
  8
FeatureAttribs
  2
FEATURE
  41
1
  42
1
  43
1
  50
0
  10
540787.127
  20
4344223.074
 66
1
  0
ATTRIB
  8
FeatureAttribs
 70
0
  1
culvert
  2
NAME
  10
540787.127
  20
4344223.074
 40
366.53038
  0
SEQEND
  0
POLYLINE
  8
Unknown_Area_Type
  70
1
  66
1
  0
VERTEX
  8
Unknown_Area_Type
  10
540634.727
  20
4344367.008
  0
VERTEX
  8
Unknown_Area_Type
  10
540939.527
  20
4344367.008
  0
VERTEX
  8
Unknown_Area_Type
  10
540939.527
  20
4344079.141
  0
VERTEX
  8
Unknown_Area_Type
  10
540634.727
  20
4344079.141
  0
VERTEX
  8
Unknown_Area_Type
  10
540634.727
  20
4344367.008
  0
SEQEND
  8
Unknown_Area_Type
  0
INSERT
  8
FeatureAttribs
  2
FEATURE
  41
1
  42
1
  43
1
  50
0
  10
534420.194
  20
4339113.441
 66
1
  0
ATTRIB
  8
FeatureAttribs
 70
0
  1
bridge
  2
NAME
  10
534420.194
  20
4339113.441
 40
366.53038
  0
SEQEND
  0
POLYLINE
  8
Unknown_Area_Type
  70
1
  66
1
  0
VERTEX
  8
Unknown_Area_Type
  10
534566.244
  20
4339263.724
  0
VERTEX
  8
Unknown_Area_Type
  10
534566.244
  20
4338963.158
  0
VERTEX
  8
Unknown_Area_Type
  10
534274.144
  20
4338963.158
  0
VERTEX
  8
Unknown_Area_Type
  10
534274.144
  20
4339263.724
  0
VERTEX
  8
Unknown_Area_Type
  10
534566.244
  20
4339263.724
  0
SEQEND
  8
Unknown_Area_Type
  0
INSERT
  8
FeatureAttribs
  2
FEATURE
  41
1
  42
1
  43
1
  50
0
  10
524467.123
  20
4338697.267
 66
1
  0
ATTRIB
  8
FeatureAttribs
 70
0
  1
raise elevation
  2
NAME
  10
524467.123
  20
4338697.267
 40
366.53038
  0
SEQEND
  0
POLYLINE
  8
Unknown_Area_Type
  70
1
  66
1
  0
VERTEX
  8
Unknown_Area_Type
  10
524357.335
  20
4338552.511
  0
VERTEX
  8
Unknown_Area_Type
  10
524357.335
  20
4338842.023
  0
VERTEX
  8
Unknown_Area_Type
  10
524576.910
  20
4338842.023
  0
VERTEX
  8
Unknown_Area_Type
  10
524576.910
  20
4338552.511
  0
VERTEX
  8
Unknown_Area_Type
  10
524357.335
  20
4338552.511
  0
SEQEND
  8
Unknown_Area_Type
  0
INSERT
  8
FeatureAttribs
  2
FEATURE
  41
1
  42
1
  43
1
  50
0
  10
496109.586
  20
4338345.091
 66
1
  0
ATTRIB
  8
FeatureAttribs
 70
0
  1
culvert
  2
NAME
  10
496109.586
  20
4338345.091
 40
366.53038
  0
SEQEND
  0
POLYLINE
  8
Unknown_Area_Type
  70
1
  66
1
  0
VERTEX
  8
Unknown_Area_Type
  10
495977.294
  20
4338465.741
  0
VERTEX
  8
Unknown_Area_Type
  10
496241.877
  20
4338465.741
  0
VERTEX
  8
Unknown_Area_Type
  10
496241.877
  20
4338224.441
  0
VERTEX
  8
Unknown_Area_Type
  10
495977.294
  20
4338224.441
  0
VERTEX
  8
Unknown_Area_Type
  10
495977.294
  20
4338465.741
  0
SEQEND
  8
Unknown_Area_Type
  0
INSERT
  8
FeatureAttribs
  2
FEATURE
  41
1
  42
1
  43
1
  50
0
  10
532803.061
  20
4335709.841
 66
1
  0
ATTRIB
  8
FeatureAttribs
 70
0
  1
culvert
  2
NAME
  10
532803.061
  20
4335709.841
 40
366.53038
  0
SEQEND
  0
POLYLINE
  8
Unknown_Area_Type
  70
1
  66
1
  0
VERTEX
  8
Unknown_Area_Type
  10
532631.611
  20
4335809.324
  0
VERTEX
  8
Unknown_Area_Type
  10
532974.511
  20
4335809.324
  0
VERTEX
  8
Unknown_Area_Type
  10
532974.511
  20
4335610.358
  0
VERTEX
  8
Unknown_Area_Type
  10
532631.611
  20
4335610.358
  0
VERTEX
  8
Unknown_Area_Type
  10
532631.611
  20
4335809.324
  0
SEQEND
  8
Unknown_Area_Type
  0
ENDSEC
  0
EOF
