  0
SECTION
  2
HEADER
  9
$ACADVER
  1
AC1015
  9
$ACADMAINTVER
 70
     6
  9
$DWGCODEPAGE
  3
ANSI_1252
  9
$INSBASE
 10
0.0
 20
0.0
 30
0.0
  9
$EXTMIN
 10
681066.1581725
 20
4317268.864425
 30
0.0
  9
$EXTMAX
 10
717831.5933675
 20
4361383.0510125
 30
0.0
  9
$LIMMIN
 10
0.0
 20
0.0
  9
$LIMMAX
 10
12.0
 20
9.0
  9
$ORTHOMODE
 70
     0
  9
$REGENMODE
 70
     1
  9
$FILLMODE
 70
     1
  9
$QTEXTMODE
 70
     0
  9
$MIRRTEXT
 70
     1
  9
$LTSCALE
 40
1.0
  9
$ATTMODE
 70
     1
  9
$TEXTSIZE
 40
0.2
  9
$TRACEWID
 40
0.05
  9
$TEXTSTYLE
  7
Standard
  9
$CLAYER
  8
0
  9
$CELTYPE
  6
ByLayer
  9
$CECOLOR
 62
   256
  9
$CELTSCALE
 40
1.0
  9
$DISPSILH
 70
     0
  9
$DIMSCALE
 40
1.0
  9
$DIMASZ
 40
0.18
  9
$DIMEXO
 40
0.0625
  9
$DIMDLI
 40
0.38
  9
$DIMRND
 40
0.0
  9
$DIMDLE
 40
0.0
  9
$DIMEXE
 40
0.18
  9
$DIMTP
 40
0.0
  9
$DIMTM
 40
0.0
  9
$DIMTXT
 40
0.18
  9
$DIMCEN
 40
0.09
  9
$DIMTSZ
 40
0.0
  9
$DIMTOL
 70
     0
  9
$DIMLIM
 70
     0
  9
$DIMTIH
 70
     1
  9
$DIMTOH
 70
     1
  9
$DIMSE1
 70
     0
  9
$DIMSE2
 70
     0
  9
$DIMTAD
 70
     0
  9
$DIMZIN
 70
     0
  9
$DIMBLK
  1

  9
$DIMASO
 70
     1
  9
$DIMSHO
 70
     1
  9
$DIMPOST
  1

  9
$DIMAPOST
  1

  9
$DIMALT
 70
     0
  9
$DIMALTD
 70
     2
  9
$DIMALTF
 40
25.4
  9
$DIMLFAC
 40
1.0
  9
$DIMTOFL
 70
     0
  9
$DIMTVP
 40
0.0
  9
$DIMTIX
 70
     0
  9
$DIMSOXD
 70
     0
  9
$DIMSAH
 70
     0
  9
$DIMBLK1
  1

  9
$DIMBLK2
  1

  9
$DIMSTYLE
  2
Standard
  9
$DIMCLRD
 70
     0
  9
$DIMCLRE
 70
     0
  9
$DIMCLRT
 70
     0
  9
$DIMTFAC
 40
1.0
  9
$DIMGAP
 40
0.09
  9
$DIMJUST
 70
     0
  9
$DIMSD1
 70
     0
  9
$DIMSD2
 70
     0
  9
$DIMTOLJ
 70
     1
  9
$DIMTZIN
 70
     0
  9
$DIMALTZ
 70
     0
  9
$DIMALTTZ
 70
     0
  9
$DIMUPT
 70
     0
  9
$DIMDEC
 70
     4
  9
$DIMTDEC
 70
     4
  9
$DIMALTU
 70
     2
  9
$DIMALTTD
 70
     2
  9
$DIMTXSTY
  7
Standard
  9
$DIMAUNIT
 70
     0
  9
$DIMADEC
 70
     0
  9
$DIMALTRND
 40
0.0
  9
$DIMAZIN
 70
     0
  9
$DIMDSEP
 70
    46
  9
$DIMATFIT
 70
     3
  9
$DIMFRAC
 70
     0
  9
$DIMLDRBLK
  1

  9
$DIMLUNIT
 70
     2
  9
$DIMLWD
 70
    -2
  9
$DIMLWE
 70
    -2
  9
$DIMTMOVE
 70
     0
  9
$LUNITS
 70
     2
  9
$LUPREC
 70
     4
  9
$SKETCHINC
 40
0.1
  9
$FILLETRAD
 40
0.5
  9
$AUNITS
 70
     0
  9
$AUPREC
 70
     0
  9
$MENU
  1
.
  9
$ELEVATION
 40
0.0
  9
$PELEVATION
 40
0.0
  9
$THICKNESS
 40
0.0
  9
$LIMCHECK
 70
     0
  9
$CHAMFERA
 40
0.5
  9
$CHAMFERB
 40
0.5
  9
$CHAMFERC
 40
1.0
  9
$CHAMFERD
 40
0.0
  9
$SKPOLY
 70
     0
  9
$TDCREATE
 40
2453943.69547757
  9
$TDUCREATE
 40
2453943.987144236
  9
$TDUPDATE
 40
2453943.737144248
  9
$TDUUPDATE
 40
2453943.987144248
  9
$TDINDWG
 40
0.0000000116
  9
$TDUSRTIMER
 40
0.0000000116
  9
$USRTIMER
 70
     1
  9
$ANGBASE
 50
0.0
  9
$ANGDIR
 70
     0
  9
$PDMODE
 70
     0
  9
$PDSIZE
 40
0.0
  9
$PLINEWID
 40
0.0
  9
$SPLFRAME
 70
     0
  9
$SPLINETYPE
 70
     6
  9
$SPLINESEGS
 70
     8
  9
$HANDSEED
  5
24C
  9
$SURFTAB1
 70
     6
  9
$SURFTAB2
 70
     6
  9
$SURFTYPE
 70
     6
  9
$SURFU
 70
     6
  9
$SURFV
 70
     6
  9
$UCSBASE
  2

  9
$UCSNAME
  2

  9
$UCSORG
 10
0.0
 20
0.0
 30
0.0
  9
$UCSXDIR
 10
1.0
 20
0.0
 30
0.0
  9
$UCSYDIR
 10
0.0
 20
1.0
 30
0.0
  9
$UCSORTHOREF
  2

  9
$UCSORTHOVIEW
 70
     0
  9
$UCSORGTOP
 10
0.0
 20
0.0
 30
0.0
  9
$UCSORGBOTTOM
 10
0.0
 20
0.0
 30
0.0
  9
$UCSORGLEFT
 10
0.0
 20
0.0
 30
0.0
  9
$UCSORGRIGHT
 10
0.0
 20
0.0
 30
0.0
  9
$UCSORGFRONT
 10
0.0
 20
0.0
 30
0.0
  9
$UCSORGBACK
 10
0.0
 20
0.0
 30
0.0
  9
$PUCSBASE
  2

  9
$PUCSNAME
  2

  9
$PUCSORG
 10
0.0
 20
0.0
 30
0.0
  9
$PUCSXDIR
 10
1.0
 20
0.0
 30
0.0
  9
$PUCSYDIR
 10
0.0
 20
1.0
 30
0.0
  9
$PUCSORTHOREF
  2

  9
$PUCSORTHOVIEW
 70
     0
  9
$PUCSORGTOP
 10
0.0
 20
0.0
 30
0.0
  9
$PUCSORGBOTTOM
 10
0.0
 20
0.0
 30
0.0
  9
$PUCSORGLEFT
 10
0.0
 20
0.0
 30
0.0
  9
$PUCSORGRIGHT
 10
0.0
 20
0.0
 30
0.0
  9
$PUCSORGFRONT
 10
0.0
 20
0.0
 30
0.0
  9
$PUCSORGBACK
 10
0.0
 20
0.0
 30
0.0
  9
$USERI1
 70
     0
  9
$USERI2
 70
     0
  9
$USERI3
 70
     0
  9
$USERI4
 70
     0
  9
$USERI5
 70
     0
  9
$USERR1
 40
0.0
  9
$USERR2
 40
0.0
  9
$USERR3
 40
0.0
  9
$USERR4
 40
0.0
  9
$USERR5
 40
0.0
  9
$WORLDVIEW
 70
     1
  9
$SHADEDGE
 70
     3
  9
$SHADEDIF
 70
    70
  9
$TILEMODE
 70
     1
  9
$MAXACTVP
 70
    64
  9
$PINSBASE
 10
0.0
 20
0.0
 30
0.0
  9
$PLIMCHECK
 70
     0
  9
$PEXTMIN
 10
1.000000000000000E+20
 20
1.000000000000000E+20
 30
1.000000000000000E+20
  9
$PEXTMAX
 10
-1.000000000000000E+20
 20
-1.000000000000000E+20
 30
-1.000000000000000E+20
  9
$PLIMMIN
 10
0.0
 20
0.0
  9
$PLIMMAX
 10
12.0
 20
9.0
  9
$UNITMODE
 70
     0
  9
$VISRETAIN
 70
     1
  9
$PLINEGEN
 70
     0
  9
$PSLTSCALE
 70
     1
  9
$TREEDEPTH
 70
  3020
  9
$CMLSTYLE
  2
Standard
  9
$CMLJUST
 70
     0
  9
$CMLSCALE
 40
1.0
  9
$PROXYGRAPHICS
 70
     1
  9
$MEASUREMENT
 70
     0
  9
$CELWEIGHT
370
    -1
  9
$ENDCAPS
280
     0
  9
$JOINSTYLE
280
     0
  9
$LWDISPLAY
290
     0
  9
$INSUNITS
 70
     1
  9
$HYPERLINKBASE
  1

  9
$STYLESHEET
  1

  9
$XEDIT
290
     1
  9
$CEPSNTYPE
380
     0
  9
$PSTYLEMODE
290
     0
  9
$FINGERPRINTGUID
  2
{FAEB1C30-E019-11D5-929B-00C0DF256EC4}
  9
$VERSIONGUID
  2
{FAEB1C32-E019-11D5-929B-00C0DF256EC4}
  9
$EXTNAMES
290
     1
  9
$PSVPSCALE
 40
0.0
  9
$OLESTARTUP
290
     0
  0
ENDSEC
  0
SECTION
  2
CLASSES
  0
CLASS
  1
ACDBDICTIONARYWDFLT
  2
AcDbDictionaryWithDefault
  3
AutoCAD 2000
 90
        0
280
     0
281
     0
  0
CLASS
  1
ACDBPLACEHOLDER
  2
AcDbPlaceHolder
  3
ObjectDBX Classes
 90
        0
280
     0
281
     0
  0
CLASS
  1
LAYOUT
  2
AcDbLayout
  3
ObjectDBX Classes
 90
        0
280
     0
281
     0
  0
ENDSEC
  0
SECTION
  2
TABLES
  0
TABLE
  2
VPORT
  5
8
330
0
100
AcDbSymbolTable
 70
     2
  0
VPORT
  5
29
330
8
100
AcDbSymbolTableRecord
100
AcDbViewportTableRecord
  2
*Active
 70
     0
 10
0.0
 20
0.0
 11
1.0
 21
1.0
 12
699448.87577
 22
4339325.957718751
 13
0.0
 23
0.0
 14
0.5
 24
0.5
 15
0.5
 25
0.5
 16
0.0
 26
0.0
 36
1.0
 17
0.0
 27
0.0
 37
0.0
 40
46319.89591687541
 41
1.972972972850329
 42
50.0
 43
0.0
 44
0.0
 50
0.0
 51
0.0
 71
     0
 72
   100
 73
     1
 74
     3
 75
     0
 76
     0
 77
     0
 78
     0
281
     0
 65
     1
110
0.0
120
0.0
130
0.0
111
1.0
121
0.0
131
0.0
112
0.0
122
1.0
132
0.0
 79
     0
146
0.0
  0
ENDTAB
  0
TABLE
  2
LTYPE
  5
5
330
0
100
AcDbSymbolTable
 70
     1
  0
LTYPE
  5
14
330
5
100
AcDbSymbolTableRecord
100
AcDbLinetypeTableRecord
  2
ByBlock
 70
     0
  3

 72
    65
 73
     0
 40
0.0
  0
LTYPE
  5
15
330
5
100
AcDbSymbolTableRecord
100
AcDbLinetypeTableRecord
  2
ByLayer
 70
     0
  3

 72
    65
 73
     0
 40
0.0
  0
LTYPE
  5
16
330
5
100
AcDbSymbolTableRecord
100
AcDbLinetypeTableRecord
  2
Continuous
 70
     0
  3
Solid line
 72
    65
 73
     0
 40
0.0
  0
ENDTAB
  0
TABLE
  2
LAYER
  5
2
330
0
100
AcDbSymbolTable
 70
     2
  0
LAYER
  5
10
330
2
100
AcDbSymbolTableRecord
100
AcDbLayerTableRecord
  2
0
 70
     0
 62
     7
  6
Continuous
370
    -3
390
F
  0
LAYER
  5
2A
330
2
100
AcDbSymbolTableRecord
100
AcDbLayerTableRecord
  2
Manhattan_UTM14_Clip
 70
     0
 62
     7
  6
Continuous
370
    -3
390
0
  0
ENDTAB
  0
TABLE
  2
STYLE
  5
3
330
0
100
AcDbSymbolTable
 70
     1
  0
STYLE
  5
11
330
3
100
AcDbSymbolTableRecord
100
AcDbTextStyleTableRecord
  2
Standard
 70
     0
 40
0.0
 41
1.0
 50
0.0
 71
     0
 42
0.2
  3
txt
  4

  0
ENDTAB
  0
TABLE
  2
VIEW
  5
6
330
0
100
AcDbSymbolTable
 70
     0
  0
ENDTAB
  0
TABLE
  2
UCS
  5
7
330
0
100
AcDbSymbolTable
 70
     0
  0
ENDTAB
  0
TABLE
  2
APPID
  5
9
330
0
100
AcDbSymbolTable
 70
     1
  0
APPID
  5
12
330
9
100
AcDbSymbolTableRecord
100
AcDbRegAppTableRecord
  2
ACAD
 70
     0
  0
ENDTAB
  0
TABLE
  2
DIMSTYLE
  5
A
330
0
100
AcDbSymbolTable
 70
     1
100
AcDbDimStyleTable
  0
DIMSTYLE
105
27
330
A
100
AcDbSymbolTableRecord
100
AcDbDimStyleTableRecord
  2
Standard
 70
     0
340
11
  0
ENDTAB
  0
TABLE
  2
BLOCK_RECORD
  5
1
330
0
100
AcDbSymbolTable
 70
     1
  0
BLOCK_RECORD
  5
1F
330
1
100
AcDbSymbolTableRecord
100
AcDbBlockTableRecord
  2
*Model_Space
340
22
  0
BLOCK_RECORD
  5
1B
330
1
100
AcDbSymbolTableRecord
100
AcDbBlockTableRecord
  2
*Paper_Space
340
1E
  0
BLOCK_RECORD
  5
23
330
1
100
AcDbSymbolTableRecord
100
AcDbBlockTableRecord
  2
*Paper_Space0
340
26
  0
ENDTAB
  0
ENDSEC
  0
SECTION
  2
BLOCKS
  0
BLOCK
  5
20
330
1F
100
AcDbEntity
  8
0
100
AcDbBlockBegin
  2
*Model_Space
 70
     0
 10
0.0
 20
0.0
 30
0.0
  3
*Model_Space
  1

  0
ENDBLK
  5
21
330
1F
100
AcDbEntity
  8
0
100
AcDbBlockEnd
  0
BLOCK
  5
1C
330
1B
100
AcDbEntity
 67
     1
  8
0
100
AcDbBlockBegin
  2
*Paper_Space
 70
     0
 10
0.0
 20
0.0
 30
0.0
  3
*Paper_Space
  1

  0
ENDBLK
  5
1D
330
1B
100
AcDbEntity
 67
     1
  8
0
100
AcDbBlockEnd
  0
BLOCK
  5
24
330
23
100
AcDbEntity
  8
0
100
AcDbBlockBegin
  2
*Paper_Space0
 70
     0
 10
0.0
 20
0.0
 30
0.0
  3
*Paper_Space0
  1

  0
ENDBLK
  5
25
330
23
100
AcDbEntity
  8
0
100
AcDbBlockEnd
  0
ENDSEC
  0
SECTION
  2
ENTITIES
  0
LWPOLYLINE
  5
2B
330
1F
100
AcDbEntity
  8
Manhattan_UTM14_Clip
100
AcDbPolyline
 90
        3
 70
     1
 43
0.0
 10
681999.999995
 20
4354703.1489075
 10
681802.099265
 20
4355000.0000025
 10
681999.999995
 20
4355000.0000025
  0
LWPOLYLINE
  5
2C
330
1F
100
AcDbEntity
  8
Manhattan_UTM14_Clip
100
AcDbPolyline
 90
        6
 70
     1
 43
0.0
 10
681999.999995
 20
4355000.0000025
 10
681802.099265
 20
4355000.0000025
 10
681694.62716
 20
4355161.2081375
 10
681066.1581725
 20
4355978.21781
 10
681067.3355975
 20
4355999.9999925
 10
681999.999995
 20
4355999.9999925
  0
LWPOLYLINE
  5
2D
330
1F
100
AcDbEntity
  8
Manhattan_UTM14_Clip
100
AcDbPolyline
 90
        4
 70
     1
 43
0.0
 10
681999.999995
 20
4355999.9999925
 10
681067.3355975
 20
4355999.9999925
 10
681121.389665
 20
4357000.000005
 10
681999.999995
 20
4357000.000005
  0
LWPOLYLINE
  5
2E
330
1F
100
AcDbEntity
  8
Manhattan_UTM14_Clip
100
AcDbPolyline
 90
        4
 70
     1
 43
0.0
 10
681999.999995
 20
4357000.000005
 10
681121.389665
 20
4357000.000005
 10
681175.44371
 20
4357999.999995
 10
681999.999995
 20
4357999.999995
  0
LWPOLYLINE
  5
2F
330
1F
100
AcDbEntity
  8
Manhattan_UTM14_Clip
100
AcDbPolyline
 90
        5
 70
     1
 43
0.0
 10
681999.999995
 20
4357999.999995
 10
681175.44371
 20
4357999.999995
 10
681191.8519925
 20
4358303.55303
 10
681136.1362325
 20
4359000.0000075
 10
681999.999995
 20
4359000.0000075
  0
LWPOLYLINE
  5
30
330
1F
100
AcDbEntity
  8
Manhattan_UTM14_Clip
100
AcDbPolyline
 90
        5
 70
     1
 43
0.0
 10
681999.999995
 20
4359000.0000075
 10
681136.1362325
 20
4359000.0000075
 10
681066.1581725
 20
4359874.7254425
 10
681098.8385
 20
4359999.9999975
 10
681999.999995
 20
4359999.9999975
  0
LWPOLYLINE
  5
31
330
1F
100
AcDbEntity
  8
Manhattan_UTM14_Clip
100
AcDbPolyline
 90
        4
 70
     1
 43
0.0
 10
681999.999995
 20
4359999.9999975
 10
681098.8385
 20
4359999.9999975
 10
681359.70809
 20
4361000.00001
 10
681999.999995
 20
4361000.00001
  0
LWPOLYLINE
  5
32
330
1F
100
AcDbEntity
  8
Manhattan_UTM14_Clip
100
AcDbPolyline
 90
        4
 70
     1
 43
0.0
 10
681999.999995
 20
4361000.00001
 10
681359.70809
 20
4361000.00001
 10
681443.2395875
 20
4361320.2041025
 10
681999.999995
 20
4361370.818685
  0
LWPOLYLINE
  5
33
330
1F
100
AcDbEntity
  8
Manhattan_UTM14_Clip
100
AcDbPolyline
 90
        4
 70
     1
 43
0.0
 10
683000.0000075001
 20
4353145.1239875
 10
682574.4837425
 20
4353841.4232975
 10
682468.76594
 20
4353999.99999
 10
683000.0000075001
 20
4353999.99999
  0
LWPOLYLINE
  5
34
330
1F
100
AcDbEntity
  8
Manhattan_UTM14_Clip
100
AcDbPolyline
 90
        5
 70
     1
 43
0.0
 10
683000.0000075001
 20
4353999.99999
 10
682468.76594
 20
4353999.99999
 10
681999.999995
 20
4354703.1489075
 10
681999.999995
 20
4355000.0000025
 10
683000.0000075001
 20
4355000.0000025
  0
LWPOLYLINE
  5
35
330
1F
100
AcDbEntity
  8
Manhattan_UTM14_Clip
100
AcDbPolyline
 90
        4
 70
     1
 43
0.0
 10
683000.0000075001
 20
4355000.0000025
 10
681999.999995
 20
4355000.0000025
 10
681999.999995
 20
4355999.9999925
 10
683000.0000075001
 20
4355999.9999925
  0
LWPOLYLINE
  5
36
330
1F
100
AcDbEntity
  8
Manhattan_UTM14_Clip
100
AcDbPolyline
 90
        4
 70
     1
 43
0.0
 10
683000.0000075001
 20
4355999.9999925
 10
681999.999995
 20
4355999.9999925
 10
681999.999995
 20
4357000.000005
 10
683000.0000075001
 20
4357000.000005
  0
LWPOLYLINE
  5
37
330
1F
100
AcDbEntity
  8
Manhattan_UTM14_Clip
100
AcDbPolyline
 90
        4
 70
     1
 43
0.0
 10
683000.0000075001
 20
4357000.000005
 10
681999.999995
 20
4357000.000005
 10
681999.999995
 20
4357999.999995
 10
683000.0000075001
 20
4357999.999995
  0
LWPOLYLINE
  5
38
330
1F
100
AcDbEntity
  8
Manhattan_UTM14_Clip
100
AcDbPolyline
 90
        4
 70
     1
 43
0.0
 10
683000.0000075001
 20
4357999.999995
 10
681999.999995
 20
4357999.999995
 10
681999.999995
 20
4359000.0000075
 10
683000.0000075001
 20
4359000.0000075
  0
LWPOLYLINE
  5
39
330
1F
100
AcDbEntity
  8
Manhattan_UTM14_Clip
100
AcDbPolyline
 90
        4
 70
     1
 43
0.0
 10
683000.0000075001
 20
4359000.0000075
 10
681999.999995
 20
4359000.0000075
 10
681999.999995
 20
4359999.9999975
 10
683000.0000075001
 20
4359999.9999975
  0
LWPOLYLINE
  5
3A
330
1F
100
AcDbEntity
  8
Manhattan_UTM14_Clip
100
AcDbPolyline
 90
        4
 70
     1
 43
0.0
 10
683000.0000075001
 20
4359999.9999975
 10
681999.999995
 20
4359999.9999975
 10
681999.999995
 20
4361000.00001
 10
683000.0000075001
 20
4361000.00001
  0
LWPOLYLINE
  5
3B
330
1F
100
AcDbEntity
  8
Manhattan_UTM14_Clip
100
AcDbPolyline
 90
        5
 70
     1
 43
0.0
 10
683000.0000075001
 20
4361286.89049
 10
683000.0000075001
 20
4361000.00001
 10
681999.999995
 20
4361000.00001
 10
681999.999995
 20
4361370.818685
 10
682134.555485
 20
4361383.0510125
  0
LWPOLYLINE
  5
3C
330
1F
100
AcDbEntity
  8
Manhattan_UTM14_Clip
100
AcDbPolyline
 90
        5
 70
     1
 43
0.0
 10
683999.9999975
 20
4352822.617155
 10
683768.5748075
 20
4352773.0260525
 10
683265.79964
 20
4352710.1791425
 10
683088.686885
 20
4353000.0
 10
683999.9999975
 20
4353000.0
  0
LWPOLYLINE
  5
3D
330
1F
100
AcDbEntity
  8
Manhattan_UTM14_Clip
100
AcDbPolyline
 90
        5
 70
     1
 43
0.0
 10
683999.9999975
 20
4353000.0
 10
683088.686885
 20
4353000.0
 10
683000.0000075001
 20
4353145.1239875
 10
683000.0000075001
 20
4353999.99999
 10
683999.9999975
 20
4353999.99999
  0
LWPOLYLINE
  5
3E
330
1F
100
AcDbEntity
  8
Manhattan_UTM14_Clip
100
AcDbPolyline
 90
        4
 70
     1
 43
0.0
 10
683999.9999975
 20
4353999.99999
 10
683000.0000075001
 20
4353999.99999
 10
683000.0000075001
 20
4355000.0000025
 10
683999.9999975
 20
4355000.0000025
  0
LWPOLYLINE
  5
3F
330
1F
100
AcDbEntity
  8
Manhattan_UTM14_Clip
100
AcDbPolyline
 90
        4
 70
     1
 43
0.0
 10
683999.9999975
 20
4355000.0000025
 10
683000.0000075001
 20
4355000.0000025
 10
683000.0000075001
 20
4355999.9999925
 10
683999.9999975
 20
4355999.9999925
  0
LWPOLYLINE
  5
40
330
1F
100
AcDbEntity
  8
Manhattan_UTM14_Clip
100
AcDbPolyline
 90
        4
 70
     1
 43
0.0
 10
683999.9999975
 20
4355999.9999925
 10
683000.0000075001
 20
4355999.9999925
 10
683000.0000075001
 20
4357000.000005
 10
683999.9999975
 20
4357000.000005
  0
LWPOLYLINE
  5
41
330
1F
100
AcDbEntity
  8
Manhattan_UTM14_Clip
100
AcDbPolyline
 90
        4
 70
     1
 43
0.0
 10
683999.9999975
 20
4357000.000005
 10
683000.0000075001
 20
4357000.000005
 10
683000.0000075001
 20
4357999.999995
 10
683999.9999975
 20
4357999.999995
  0
LWPOLYLINE
  5
42
330
1F
100
AcDbEntity
  8
Manhattan_UTM14_Clip
100
AcDbPolyline
 90
        4
 70
     1
 43
0.0
 10
683999.9999975
 20
4357999.999995
 10
683000.0000075001
 20
4357999.999995
 10
683000.0000075001
 20
4359000.0000075
 10
683999.9999975
 20
4359000.0000075
  0
LWPOLYLINE
  5
43
330
1F
100
AcDbEntity
  8
Manhattan_UTM14_Clip
100
AcDbPolyline
 90
        4
 70
     1
 43
0.0
 10
683999.9999975
 20
4359000.0000075
 10
683000.0000075001
 20
4359000.0000075
 10
683000.0000075001
 20
4359999.9999975
 10
683999.9999975
 20
4359999.9999975
  0
LWPOLYLINE
  5
44
330
1F
100
AcDbEntity
  8
Manhattan_UTM14_Clip
100
AcDbPolyline
 90
        5
 70
     1
 43
0.0
 10
683999.9999975
 20
4360562.8433475
 10
683999.9999975
 20
4359999.9999975
 10
683000.0000075001
 20
4359999.9999975
 10
683000.0000075001
 20
4361000.00001
 10
683537.8629575
 20
4361000.00001
  0
LWPOLYLINE
  5
45
330
1F
100
AcDbEntity
  8
Manhattan_UTM14_Clip
100
AcDbPolyline
 90
        4
 70
     1
 43
0.0
 10
683537.8629575
 20
4361000.00001
 10
683000.0000075001
 20
4361000.00001
 10
683000.0000075001
 20
4361286.89049
 10
683265.79964
 20
4361257.3571925
  0
LWPOLYLINE
  5
46
330
1F
100
AcDbEntity
  8
Manhattan_UTM14_Clip
100
AcDbPolyline
 90
        5
 70
     1
 43
0.0
 10
685000.00001
 20
4352961.566715
 10
684648.43139
 20
4352961.566715
 10
683999.9999975
 20
4352822.617155
 10
683999.9999975
 20
4353000.0
 10
685000.00001
 20
4353000.0
  0
LWPOLYLINE
  5
47
330
1F
100
AcDbEntity
  8
Manhattan_UTM14_Clip
100
AcDbPolyline
 90
        4
 70
     1
 43
0.0
 10
685000.00001
 20
4353000.0
 10
683999.9999975
 20
4353000.0
 10
683999.9999975
 20
4353999.99999
 10
685000.00001
 20
4353999.99999
  0
LWPOLYLINE
  5
48
330
1F
100
AcDbEntity
  8
Manhattan_UTM14_Clip
100
AcDbPolyline
 90
        4
 70
     1
 43
0.0
 10
685000.00001
 20
4353999.99999
 10
683999.9999975
 20
4353999.99999
 10
683999.9999975
 20
4355000.0000025
 10
685000.00001
 20
4355000.0000025
  0
LWPOLYLINE
  5
49
330
1F
100
AcDbEntity
  8
Manhattan_UTM14_Clip
100
AcDbPolyline
 90
        4
 70
     1
 43
0.0
 10
685000.00001
 20
4355000.0000025
 10
683999.9999975
 20
4355000.0000025
 10
683999.9999975
 20
4355999.9999925
 10
685000.00001
 20
4355999.9999925
  0
LWPOLYLINE
  5
4A
330
1F
100
AcDbEntity
  8
Manhattan_UTM14_Clip
100
AcDbPolyline
 90
        4
 70
     1
 43
0.0
 10
685000.00001
 20
4355999.9999925
 10
683999.9999975
 20
4355999.9999925
 10
683999.9999975
 20
4357000.000005
 10
685000.00001
 20
4357000.000005
  0
LWPOLYLINE
  5
4B
330
1F
100
AcDbEntity
  8
Manhattan_UTM14_Clip
100
AcDbPolyline
 90
        4
 70
     1
 43
0.0
 10
685000.00001
 20
4357000.000005
 10
683999.9999975
 20
4357000.000005
 10
683999.9999975
 20
4357999.999995
 10
685000.00001
 20
4357999.999995
  0
LWPOLYLINE
  5
4C
330
1F
100
AcDbEntity
  8
Manhattan_UTM14_Clip
100
AcDbPolyline
 90
        4
 70
     1
 43
0.0
 10
685000.00001
 20
4357999.999995
 10
683999.9999975
 20
4357999.999995
 10
683999.9999975
 20
4359000.0000075
 10
685000.00001
 20
4359000.0000075
  0
LWPOLYLINE
  5
4D
330
1F
100
AcDbEntity
  8
Manhattan_UTM14_Clip
100
AcDbPolyline
 90
        5
 70
     1
 43
0.0
 10
685000.00001
 20
4359616.89738
 10
685000.00001
 20
4359000.0000075
 10
683999.9999975
 20
4359000.0000075
 10
683999.9999975
 20
4359999.9999975
 10
684595.005815
 20
4359999.9999975
  0
LWPOLYLINE
  5
4E
330
1F
100
AcDbEntity
  8
Manhattan_UTM14_Clip
100
AcDbPolyline
 90
        3
 70
     1
 43
0.0
 10
684595.005815
 20
4359999.9999975
 10
683999.9999975
 20
4359999.9999975
 10
683999.9999975
 20
4360562.8433475
  0
LWPOLYLINE
  5
4F
330
1F
100
AcDbEntity
  8
Manhattan_UTM14_Clip
100
AcDbPolyline
 90
        5
 70
     1
 43
0.0
 10
686000.0
 20
4352912.13552
 10
685653.981725
 20
4352961.566715
 10
685000.00001
 20
4352961.566715
 10
685000.00001
 20
4353000.0
 10
686000.0
 20
4353000.0
  0
LWPOLYLINE
  5
50
330
1F
100
AcDbEntity
  8
Manhattan_UTM14_Clip
100
AcDbPolyline
 90
        4
 70
     1
 43
0.0
 10
686000.0
 20
4353000.0
 10
685000.00001
 20
4353000.0
 10
685000.00001
 20
4353999.99999
 10
686000.0
 20
4353999.99999
  0
LWPOLYLINE
  5
51
330
1F
100
AcDbEntity
  8
Manhattan_UTM14_Clip
100
AcDbPolyline
 90
        4
 70
     1
 43
0.0
 10
686000.0
 20
4353999.99999
 10
685000.00001
 20
4353999.99999
 10
685000.00001
 20
4355000.0000025
 10
686000.0
 20
4355000.0000025
  0
LWPOLYLINE
  5
52
330
1F
100
AcDbEntity
  8
Manhattan_UTM14_Clip
100
AcDbPolyline
 90
        4
 70
     1
 43
0.0
 10
686000.0
 20
4355000.0000025
 10
685000.00001
 20
4355000.0000025
 10
685000.00001
 20
4355999.9999925
 10
686000.0
 20
4355999.9999925
  0
LWPOLYLINE
  5
53
330
1F
100
AcDbEntity
  8
Manhattan_UTM14_Clip
100
AcDbPolyline
 90
        4
 70
     1
 43
0.0
 10
686000.0
 20
4355999.9999925
 10
685000.00001
 20
4355999.9999925
 10
685000.00001
 20
4357000.000005
 10
686000.0
 20
4357000.000005
  0
LWPOLYLINE
  5
54
330
1F
100
AcDbEntity
  8
Manhattan_UTM14_Clip
100
AcDbPolyline
 90
        4
 70
     1
 43
0.0
 10
686000.0
 20
4357000.000005
 10
685000.00001
 20
4357000.000005
 10
685000.00001
 20
4357999.999995
 10
686000.0
 20
4357999.999995
  0
LWPOLYLINE
  5
55
330
1F
100
AcDbEntity
  8
Manhattan_UTM14_Clip
100
AcDbPolyline
 90
        5
 70
     1
 43
0.0
 10
686000.0
 20
4358512.5622125
 10
686000.0
 20
4357999.999995
 10
685000.00001
 20
4357999.999995
 10
685000.00001
 20
4359000.0000075
 10
685634.4216425
 20
4359000.0000075
  0
LWPOLYLINE
  5
56
330
1F
100
AcDbEntity
  8
Manhattan_UTM14_Clip
100
AcDbPolyline
 90
        4
 70
     1
 43
0.0
 10
685634.4216425
 20
4359000.0000075
 10
685000.00001
 20
4359000.0000075
 10
685000.00001
 20
4359616.89738
 10
685591.134815
 20
4359057.7157925
  0
LWPOLYLINE
  5
57
330
1F
100
AcDbEntity
  8
Manhattan_UTM14_Clip
100
AcDbPolyline
 90
        7
 70
     1
 43
0.0
 10
686999.99999
 20
4352360.5190175
 10
686533.8383075
 20
4352333.0977275
 10
686345.2976225
 20
4352333.0977275
 10
686093.91005
 20
4352898.719805
 10
686000.0
 20
4352912.13552
 10
686000.0
 20
4353000.0
 10
686999.99999
 20
4353000.0
  0
LWPOLYLINE
  5
58
330
1F
100
AcDbEntity
  8
Manhattan_UTM14_Clip
100
AcDbPolyline
 90
        4
 70
     1
 43
0.0
 10
686999.99999
 20
4353000.0
 10
686000.0
 20
4353000.0
 10
686000.0
 20
4353999.99999
 10
686999.99999
 20
4353999.99999
  0
LWPOLYLINE
  5
59
330
1F
100
AcDbEntity
  8
Manhattan_UTM14_Clip
100
AcDbPolyline
 90
        4
 70
     1
 43
0.0
 10
686999.99999
 20
4353999.99999
 10
686000.0
 20
4353999.99999
 10
686000.0
 20
4355000.0000025
 10
686999.99999
 20
4355000.0000025
  0
LWPOLYLINE
  5
5A
330
1F
100
AcDbEntity
  8
Manhattan_UTM14_Clip
100
AcDbPolyline
 90
        4
 70
     1
 43
0.0
 10
686999.99999
 20
4355000.0000025
 10
686000.0
 20
4355000.0000025
 10
686000.0
 20
4355999.9999925
 10
686999.99999
 20
4355999.9999925
  0
LWPOLYLINE
  5
5B
330
1F
100
AcDbEntity
  8
Manhattan_UTM14_Clip
100
AcDbPolyline
 90
        4
 70
     1
 43
0.0
 10
686999.99999
 20
4355999.9999925
 10
686000.0
 20
4355999.9999925
 10
686000.0
 20
4357000.000005
 10
686999.99999
 20
4357000.000005
  0
LWPOLYLINE
  5
5C
330
1F
100
AcDbEntity
  8
Manhattan_UTM14_Clip
100
AcDbPolyline
 90
        5
 70
     1
 43
0.0
 10
686999.99999
 20
4357179.2289075
 10
686999.99999
 20
4357000.000005
 10
686000.0
 20
4357000.000005
 10
686000.0
 20
4357999.999995
 10
686384.4216575
 20
4357999.999995
  0
LWPOLYLINE
  5
5D
330
1F
100
AcDbEntity
  8
Manhattan_UTM14_Clip
100
AcDbPolyline
 90
        3
 70
     1
 43
0.0
 10
686384.4216575
 20
4357999.999995
 10
686000.0
 20
4357999.999995
 10
686000.0
 20
4358512.5622125
  0
LWPOLYLINE
  5
5E
330
1F
100
AcDbEntity
  8
Manhattan_UTM14_Clip
100
AcDbPolyline
 90
        5
 70
     1
 43
0.0
 10
688000.0000025
 20
4352236.83888
 10
687602.2355525
 20
4352395.9446375
 10
686999.99999
 20
4352360.5190175
 10
686999.99999
 20
4353000.0
 10
688000.0000025
 20
4353000.0
  0
LWPOLYLINE
  5
5F
330
1F
100
AcDbEntity
  8
Manhattan_UTM14_Clip
100
AcDbPolyline
 90
        4
 70
     1
 43
0.0
 10
688000.0000025
 20
4353000.0
 10
686999.99999
 20
4353000.0
 10
686999.99999
 20
4353999.99999
 10
688000.0000025
 20
4353999.99999
  0
LWPOLYLINE
  5
60
330
1F
100
AcDbEntity
  8
Manhattan_UTM14_Clip
100
AcDbPolyline
 90
        4
 70
     1
 43
0.0
 10
688000.0000025
 20
4353999.99999
 10
686999.99999
 20
4353999.99999
 10
686999.99999
 20
4355000.0000025
 10
688000.0000025
 20
4355000.0000025
  0
LWPOLYLINE
  5
61
330
1F
100
AcDbEntity
  8
Manhattan_UTM14_Clip
100
AcDbPolyline
 90
        5
 70
     1
 43
0.0
 10
688000.0000025
 20
4355905.53057
 10
688000.0000025
 20
4355000.0000025
 10
686999.99999
 20
4355000.0000025
 10
686999.99999
 20
4355999.9999925
 10
687897.9730325
 20
4355999.9999925
  0
LWPOLYLINE
  5
62
330
1F
100
AcDbEntity
  8
Manhattan_UTM14_Clip
100
AcDbPolyline
 90
        5
 70
     1
 43
0.0
 10
687897.9730325
 20
4355999.9999925
 10
686999.99999
 20
4355999.9999925
 10
686999.99999
 20
4357000.000005
 10
687134.4216725
 20
4357000.000005
 10
687853.623125
 20
4356041.06472
  0
LWPOLYLINE
  5
63
330
1F
100
AcDbEntity
  8
Manhattan_UTM14_Clip
100
AcDbPolyline
 90
        3
 70
     1
 43
0.0
 10
687134.4216725
 20
4357000.000005
 10
686999.99999
 20
4357000.000005
 10
686999.99999
 20
4357179.2289075
  0
LWPOLYLINE
  5
64
330
1F
100
AcDbEntity
  8
Manhattan_UTM14_Clip
100
AcDbPolyline
 90
        3
 70
     1
 43
0.0
 10
688999.9999925001
 20
4351499.3415075
 10
688403.06102
 20
4352000.00001
 10
688999.9999925001
 20
4352000.00001
  0
LWPOLYLINE
  5
65
330
1F
100
AcDbEntity
  8
Manhattan_UTM14_Clip
100
AcDbPolyline
 90
        6
 70
     1
 43
0.0
 10
688999.9999925001
 20
4352000.00001
 10
688403.06102
 20
4352000.00001
 10
688230.70454
 20
4352144.557065
 10
688000.0000025
 20
4352236.83888
 10
688000.0000025
 20
4353000.0
 10
688999.9999925001
 20
4353000.0
  0
LWPOLYLINE
  5
66
330
1F
100
AcDbEntity
  8
Manhattan_UTM14_Clip
100
AcDbPolyline
 90
        4
 70
     1
 43
0.0
 10
688999.9999925001
 20
4353000.0
 10
688000.0000025
 20
4353000.0
 10
688000.0000025
 20
4353999.99999
 10
688999.9999925001
 20
4353999.99999
  0
LWPOLYLINE
  5
67
330
1F
100
AcDbEntity
  8
Manhattan_UTM14_Clip
100
AcDbPolyline
 90
        5
 70
     1
 43
0.0
 10
688999.9999925001
 20
4354979.604675
 10
688999.9999925001
 20
4353999.99999
 10
688000.0000025
 20
4353999.99999
 10
688000.0000025
 20
4355000.0000025
 10
688977.9730325
 20
4355000.0000025
  0
LWPOLYLINE
  5
68
330
1F
100
AcDbEntity
  8
Manhattan_UTM14_Clip
100
AcDbPolyline
 90
        3
 70
     1
 43
0.0
 10
688977.9730325
 20
4355000.0000025
 10
688000.0000025
 20
4355000.0000025
 10
688000.0000025
 20
4355905.53057
  0
LWPOLYLINE
  5
69
330
1F
100
AcDbEntity
  8
Manhattan_UTM14_Clip
100
AcDbPolyline
 90
        3
 70
     1
 43
0.0
 10
690000.000005
 20
4350660.6318225
 10
689595.3687125
 20
4350999.9999975
 10
690000.000005
 20
4350999.9999975
  0
LWPOLYLINE
  5
6A
330
1F
100
AcDbEntity
  8
Manhattan_UTM14_Clip
100
AcDbPolyline
 90
        5
 70
     1
 43
0.0
 10
690000.000005
 20
4350999.9999975
 10
689595.3687125
 20
4350999.9999975
 10
688999.9999925001
 20
4351499.3415075
 10
688999.9999925001
 20
4352000.00001
 10
690000.000005
 20
4352000.00001
  0
LWPOLYLINE
  5
6B
330
1F
100
AcDbEntity
  8
Manhattan_UTM14_Clip
100
AcDbPolyline
 90
        4
 70
     1
 43
0.0
 10
690000.000005
 20
4352000.00001
 10
688999.9999925001
 20
4352000.00001
 10
688999.9999925001
 20
4353000.0
 10
690000.000005
 20
4353000.0
  0
LWPOLYLINE
  5
6C
330
1F
100
AcDbEntity
  8
Manhattan_UTM14_Clip
100
AcDbPolyline
 90
        4
 70
     1
 43
0.0
 10
690000.000005
 20
4353000.0
 10
688999.9999925001
 20
4353000.0
 10
688999.9999925001
 20
4353999.99999
 10
690000.000005
 20
4353999.99999
  0
LWPOLYLINE
  5
6D
330
1F
100
AcDbEntity
  8
Manhattan_UTM14_Clip
100
AcDbPolyline
 90
        5
 70
     1
 43
0.0
 10
690000.000005
 20
4354391.7165075
 10
690000.000005
 20
4353999.99999
 10
688999.9999925001
 20
4353999.99999
 10
688999.9999925001
 20
4354979.604675
 10
689550.48938
 20
4354469.892285
  0
LWPOLYLINE
  5
6E
330
1F
100
AcDbEntity
  8
Manhattan_UTM14_Clip
100
AcDbPolyline
 90
        3
 70
     1
 43
0.0
 10
690999.999995
 20
4349760.8910225
 10
690738.118715
 20
4350000.0000075
 10
690999.999995
 20
4350000.0000075
  0
LWPOLYLINE
  5
6F
330
1F
100
AcDbEntity
  8
Manhattan_UTM14_Clip
100
AcDbPolyline
 90
        6
 70
     1
 43
0.0
 10
690999.999995
 20
4350000.0000075
 10
690738.118715
 20
4350000.0000075
 10
690178.9583675
 20
4350510.53772
 10
690000.000005
 20
4350660.6318225
 10
690000.000005
 20
4350999.9999975
 10
690999.999995
 20
4350999.9999975
  0
LWPOLYLINE
  5
70
330
1F
100
AcDbEntity
  8
Manhattan_UTM14_Clip
100
AcDbPolyline
 90
        4
 70
     1
 43
0.0
 10
690999.999995
 20
4350999.9999975
 10
690000.000005
 20
4350999.9999975
 10
690000.000005
 20
4352000.00001
 10
690999.999995
 20
4352000.00001
  0
LWPOLYLINE
  5
71
330
1F
100
AcDbEntity
  8
Manhattan_UTM14_Clip
100
AcDbPolyline
 90
        4
 70
     1
 43
0.0
 10
690999.999995
 20
4352000.00001
 10
690000.000005
 20
4352000.00001
 10
690000.000005
 20
4353000.0
 10
690999.999995
 20
4353000.0
  0
LWPOLYLINE
  5
72
330
1F
100
AcDbEntity
  8
Manhattan_UTM14_Clip
100
AcDbPolyline
 90
        4
 70
     1
 43
0.0
 10
690999.999995
 20
4353000.0
 10
690000.000005
 20
4353000.0
 10
690000.000005
 20
4353999.99999
 10
690999.999995
 20
4353999.99999
  0
LWPOLYLINE
  5
73
330
1F
100
AcDbEntity
  8
Manhattan_UTM14_Clip
100
AcDbPolyline
 90
        5
 70
     1
 43
0.0
 10
690999.999995
 20
4354215.69165
 10
690999.999995
 20
4353999.99999
 10
690000.000005
 20
4353999.99999
 10
690000.000005
 20
4354391.7165075
 10
690995.96804
 20
4354218.504645
  0
LWPOLYLINE
  5
74
330
1F
100
AcDbEntity
  8
Manhattan_UTM14_Clip
100
AcDbPolyline
 90
        3
 70
     1
 43
0.0
 10
692000.0000075001
 20
4348847.847525
 10
691833.3568175
 20
4348999.999995
 10
692000.0000075001
 20
4348999.999995
  0
LWPOLYLINE
  5
75
330
1F
100
AcDbEntity
  8
Manhattan_UTM14_Clip
100
AcDbPolyline
 90
        5
 70
     1
 43
0.0
 10
692000.0000075001
 20
4348999.999995
 10
691833.3568175
 20
4348999.999995
 10
690999.999995
 20
4349760.8910225
 10
690999.999995
 20
4350000.0000075
 10
692000.0000075001
 20
4350000.0000075
  0
LWPOLYLINE
  5
76
330
1F
100
AcDbEntity
  8
Manhattan_UTM14_Clip
100
AcDbPolyline
 90
        4
 70
     1
 43
0.0
 10
692000.0000075001
 20
4350000.0000075
 10
690999.999995
 20
4350000.0000075
 10
690999.999995
 20
4350999.9999975
 10
692000.0000075001
 20
4350999.9999975
  0
LWPOLYLINE
  5
77
330
1F
100
AcDbEntity
  8
Manhattan_UTM14_Clip
100
AcDbPolyline
 90
        4
 70
     1
 43
0.0
 10
692000.0000075001
 20
4350999.9999975
 10
690999.999995
 20
4350999.9999975
 10
690999.999995
 20
4352000.00001
 10
692000.0000075001
 20
4352000.00001
  0
LWPOLYLINE
  5
78
330
1F
100
AcDbEntity
  8
Manhattan_UTM14_Clip
100
AcDbPolyline
 90
        4
 70
     1
 43
0.0
 10
692000.0000075001
 20
4352000.00001
 10
690999.999995
 20
4352000.00001
 10
690999.999995
 20
4353000.0
 10
692000.0000075001
 20
4353000.0
  0
LWPOLYLINE
  5
79
330
1F
100
AcDbEntity
  8
Manhattan_UTM14_Clip
100
AcDbPolyline
 90
        5
 70
     1
 43
0.0
 10
692000.0000075001
 20
4353518.01723
 10
692000.0000075001
 20
4353000.0
 10
690999.999995
 20
4353000.0
 10
690999.999995
 20
4353999.99999
 10
691309.15805
 20
4353999.99999
  0
LWPOLYLINE
  5
7A
330
1F
100
AcDbEntity
  8
Manhattan_UTM14_Clip
100
AcDbPolyline
 90
        3
 70
     1
 43
0.0
 10
691309.15805
 20
4353999.99999
 10
690999.999995
 20
4353999.99999
 10
690999.999995
 20
4354215.69165
  0
LWPOLYLINE
  5
7B
330
1F
100
AcDbEntity
  8
Manhattan_UTM14_Clip
100
AcDbPolyline
 90
        3
 70
     1
 43
0.0
 10
692999.9999975
 20
4347934.80405
 10
692928.5948975
 20
4348000.000005
 10
692999.9999975
 20
4348000.000005
  0
LWPOLYLINE
  5
7C
330
1F
100
AcDbEntity
  8
Manhattan_UTM14_Clip
100
AcDbPolyline
 90
        5
 70
     1
 43
0.0
 10
692999.9999975
 20
4348000.000005
 10
692928.5948975
 20
4348000.000005
 10
692000.0000075001
 20
4348847.847525
 10
692000.0000075001
 20
4348999.999995
 10
692999.9999975
 20
4348999.999995
  0
LWPOLYLINE
  5
7D
330
1F
100
AcDbEntity
  8
Manhattan_UTM14_Clip
100
AcDbPolyline
 90
        4
 70
     1
 43
0.0
 10
692999.9999975
 20
4348999.999995
 10
692000.0000075001
 20
4348999.999995
 10
692000.0000075001
 20
4350000.0000075
 10
692999.9999975
 20
4350000.0000075
  0
LWPOLYLINE
  5
7E
330
1F
100
AcDbEntity
  8
Manhattan_UTM14_Clip
100
AcDbPolyline
 90
        4
 70
     1
 43
0.0
 10
692999.9999975
 20
4350000.0000075
 10
692000.0000075001
 20
4350000.0000075
 10
692000.0000075001
 20
4350999.9999975
 10
692999.9999975
 20
4350999.9999975
  0
LWPOLYLINE
  5
7F
330
1F
100
AcDbEntity
  8
Manhattan_UTM14_Clip
100
AcDbPolyline
 90
        4
 70
     1
 43
0.0
 10
692999.9999975
 20
4350999.9999975
 10
692000.0000075001
 20
4350999.9999975
 10
692000.0000075001
 20
4352000.00001
 10
692999.9999975
 20
4352000.00001
  0
LWPOLYLINE
  5
80
330
1F
100
AcDbEntity
  8
Manhattan_UTM14_Clip
100
AcDbPolyline
 90
        5
 70
     1
 43
0.0
 10
692999.9999975
 20
4352820.3428325
 10
692999.9999975
 20
4352000.00001
 10
692000.0000075001
 20
4352000.00001
 10
692000.0000075001
 20
4353000.0
 10
692742.49139
 20
4353000.0
  0
LWPOLYLINE
  5
81
330
1F
100
AcDbEntity
  8
Manhattan_UTM14_Clip
100
AcDbPolyline
 90
        3
 70
     1
 43
0.0
 10
692742.49139
 20
4353000.0
 10
692000.0000075001
 20
4353000.0
 10
692000.0000075001
 20
4353518.01723
  0
LWPOLYLINE
  5
82
330
1F
100
AcDbEntity
  8
Manhattan_UTM14_Clip
100
AcDbPolyline
 90
        4
 70
     1
 43
0.0
 10
694000.00001
 20
4346083.378185
 10
693635.537765
 20
4346488.336245
 10
693426.2207600001
 20
4346999.9999925
 10
694000.00001
 20
4346999.9999925
  0
LWPOLYLINE
  5
83
330
1F
100
AcDbEntity
  8
Manhattan_UTM14_Clip
100
AcDbPolyline
 90
        6
 70
     1
 43
0.0
 10
694000.00001
 20
4346999.9999925
 10
693426.2207600001
 20
4346999.9999925
 10
693069.915665
 20
4347870.967995
 10
692999.9999975
 20
4347934.80405
 10
692999.9999975
 20
4348000.000005
 10
694000.00001
 20
4348000.000005
  0
LWPOLYLINE
  5
84
330
1F
100
AcDbEntity
  8
Manhattan_UTM14_Clip
100
AcDbPolyline
 90
        4
 70
     1
 43
0.0
 10
694000.00001
 20
4348000.000005
 10
692999.9999975
 20
4348000.000005
 10
692999.9999975
 20
4348999.999995
 10
694000.00001
 20
4348999.999995
  0
LWPOLYLINE
  5
85
330
1F
100
AcDbEntity
  8
Manhattan_UTM14_Clip
100
AcDbPolyline
 90
        4
 70
     1
 43
0.0
 10
694000.00001
 20
4348999.999995
 10
692999.9999975
 20
4348999.999995
 10
692999.9999975
 20
4350000.0000075
 10
694000.00001
 20
4350000.0000075
  0
LWPOLYLINE
  5
86
330
1F
100
AcDbEntity
  8
Manhattan_UTM14_Clip
100
AcDbPolyline
 90
        4
 70
     1
 43
0.0
 10
694000.00001
 20
4350000.0000075
 10
692999.9999975
 20
4350000.0000075
 10
692999.9999975
 20
4350999.9999975
 10
694000.00001
 20
4350999.9999975
  0
LWPOLYLINE
  5
87
330
1F
100
AcDbEntity
  8
Manhattan_UTM14_Clip
100
AcDbPolyline
 90
        4
 70
     1
 43
0.0
 10
694000.00001
 20
4350999.9999975
 10
692999.9999975
 20
4350999.9999975
 10
692999.9999975
 20
4352000.00001
 10
694000.00001
 20
4352000.00001
  0
LWPOLYLINE
  5
88
330
1F
100
AcDbEntity
  8
Manhattan_UTM14_Clip
100
AcDbPolyline
 90
        4
 70
     1
 43
0.0
 10
694000.00001
 20
4352122.6684125
 10
694000.00001
 20
4352000.00001
 10
692999.9999975
 20
4352000.00001
 10
692999.9999975
 20
4352820.3428325
  0
LWPOLYLINE
  5
89
330
1F
100
AcDbEntity
  8
Manhattan_UTM14_Clip
100
AcDbPolyline
 90
        4
 70
     1
 43
0.0
 10
695000.0
 20
4345631.6272125
 10
694201.1598425
 20
4345859.8672575
 10
694075.0403675
 20
4346000.0000025
 10
695000.0
 20
4346000.0000025
  0
LWPOLYLINE
  5
8A
330
1F
100
AcDbEntity
  8
Manhattan_UTM14_Clip
100
AcDbPolyline
 90
        5
 70
     1
 43
0.0
 10
695000.0
 20
4346000.0000025
 10
694075.0403675
 20
4346000.0000025
 10
694000.00001
 20
4346083.378185
 10
694000.00001
 20
4346999.9999925
 10
695000.0
 20
4346999.9999925
  0
LWPOLYLINE
  5
8B
330
1F
100
AcDbEntity
  8
Manhattan_UTM14_Clip
100
AcDbPolyline
 90
        4
 70
     1
 43
0.0
 10
695000.0
 20
4346999.9999925
 10
694000.00001
 20
4346999.9999925
 10
694000.00001
 20
4348000.000005
 10
695000.0
 20
4348000.000005
  0
LWPOLYLINE
  5
8C
330
1F
100
AcDbEntity
  8
Manhattan_UTM14_Clip
100
AcDbPolyline
 90
        4
 70
     1
 43
0.0
 10
695000.0
 20
4348000.000005
 10
694000.00001
 20
4348000.000005
 10
694000.00001
 20
4348999.999995
 10
695000.0
 20
4348999.999995
  0
LWPOLYLINE
  5
8D
330
1F
100
AcDbEntity
  8
Manhattan_UTM14_Clip
100
AcDbPolyline
 90
        4
 70
     1
 43
0.0
 10
695000.0
 20
4348999.999995
 10
694000.00001
 20
4348999.999995
 10
694000.00001
 20
4350000.0000075
 10
695000.0
 20
4350000.0000075
  0
LWPOLYLINE
  5
8E
330
1F
100
AcDbEntity
  8
Manhattan_UTM14_Clip
100
AcDbPolyline
 90
        4
 70
     1
 43
0.0
 10
695000.0
 20
4350000.0000075
 10
694000.00001
 20
4350000.0000075
 10
694000.00001
 20
4350999.9999975
 10
695000.0
 20
4350999.9999975
  0
LWPOLYLINE
  5
8F
330
1F
100
AcDbEntity
  8
Manhattan_UTM14_Clip
100
AcDbPolyline
 90
        5
 70
     1
 43
0.0
 10
695000.0
 20
4351424.9939925
 10
695000.0
 20
4350999.9999975
 10
694000.00001
 20
4350999.9999975
 10
694000.00001
 20
4352000.00001
 10
694175.8247075001
 20
4352000.00001
  0
LWPOLYLINE
  5
90
330
1F
100
AcDbEntity
  8
Manhattan_UTM14_Clip
100
AcDbPolyline
 90
        3
 70
     1
 43
0.0
 10
694175.8247075001
 20
4352000.00001
 10
694000.00001
 20
4352000.00001
 10
694000.00001
 20
4352122.6684125
  0
LWPOLYLINE
  5
91
330
1F
100
AcDbEntity
  8
Manhattan_UTM14_Clip
100
AcDbPolyline
 90
        5
 70
     1
 43
0.0
 10
695999.99999
 20
4345346.9480325
 10
695960.8729175
 20
4345357.09209
 10
695000.0
 20
4345631.6272125
 10
695000.0
 20
4346000.0000025
 10
695999.99999
 20
4346000.0000025
  0
LWPOLYLINE
  5
92
330
1F
100
AcDbEntity
  8
Manhattan_UTM14_Clip
100
AcDbPolyline
 90
        4
 70
     1
 43
0.0
 10
695999.99999
 20
4346000.0000025
 10
695000.0
 20
4346000.0000025
 10
695000.0
 20
4346999.9999925
 10
695999.99999
 20
4346999.9999925
  0
LWPOLYLINE
  5
93
330
1F
100
AcDbEntity
  8
Manhattan_UTM14_Clip
100
AcDbPolyline
 90
        4
 70
     1
 43
0.0
 10
695999.99999
 20
4346999.9999925
 10
695000.0
 20
4346999.9999925
 10
695000.0
 20
4348000.000005
 10
695999.99999
 20
4348000.000005
  0
LWPOLYLINE
  5
94
330
1F
100
AcDbEntity
  8
Manhattan_UTM14_Clip
100
AcDbPolyline
 90
        4
 70
     1
 43
0.0
 10
695999.99999
 20
4348000.000005
 10
695000.0
 20
4348000.000005
 10
695000.0
 20
4348999.999995
 10
695999.99999
 20
4348999.999995
  0
LWPOLYLINE
  5
95
330
1F
100
AcDbEntity
  8
Manhattan_UTM14_Clip
100
AcDbPolyline
 90
        4
 70
     1
 43
0.0
 10
695999.99999
 20
4348999.999995
 10
695000.0
 20
4348999.999995
 10
695000.0
 20
4350000.0000075
 10
695999.99999
 20
4350000.0000075
  0
LWPOLYLINE
  5
96
330
1F
100
AcDbEntity
  8
Manhattan_UTM14_Clip
100
AcDbPolyline
 90
        5
 70
     1
 43
0.0
 10
695999.99999
 20
4350727.319595
 10
695999.99999
 20
4350000.0000075
 10
695000.0
 20
4350000.0000075
 10
695000.0
 20
4350999.9999975
 10
695609.15807
 20
4350999.9999975
  0
LWPOLYLINE
  5
97
330
1F
100
AcDbEntity
  8
Manhattan_UTM14_Clip
100
AcDbPolyline
 90
        3
 70
     1
 43
0.0
 10
695609.15807
 20
4350999.9999975
 10
695000.0
 20
4350999.9999975
 10
695000.0
 20
4351424.9939925
  0
LWPOLYLINE
  5
98
330
1F
100
AcDbEntity
  8
Manhattan_UTM14_Clip
100
AcDbPolyline
 90
        4
 70
     1
 43
0.0
 10
697000.0000025
 20
4345087.68879
 10
695999.99999
 20
4345346.9480325
 10
695999.99999
 20
4346000.0000025
 10
697000.0000025
 20
4346000.0000025
  0
LWPOLYLINE
  5
99
330
1F
100
AcDbEntity
  8
Manhattan_UTM14_Clip
100
AcDbPolyline
 90
        4
 70
     1
 43
0.0
 10
697000.0000025
 20
4346000.0000025
 10
695999.99999
 20
4346000.0000025
 10
695999.99999
 20
4346999.9999925
 10
697000.0000025
 20
4346999.9999925
  0
LWPOLYLINE
  5
9A
330
1F
100
AcDbEntity
  8
Manhattan_UTM14_Clip
100
AcDbPolyline
 90
        4
 70
     1
 43
0.0
 10
697000.0000025
 20
4346999.9999925
 10
695999.99999
 20
4346999.9999925
 10
695999.99999
 20
4348000.000005
 10
697000.0000025
 20
4348000.000005
  0
LWPOLYLINE
  5
9B
330
1F
100
AcDbEntity
  8
Manhattan_UTM14_Clip
100
AcDbPolyline
 90
        4
 70
     1
 43
0.0
 10
697000.0000025
 20
4348000.000005
 10
695999.99999
 20
4348000.000005
 10
695999.99999
 20
4348999.999995
 10
697000.0000025
 20
4348999.999995
  0
LWPOLYLINE
  5
9C
330
1F
100
AcDbEntity
  8
Manhattan_UTM14_Clip
100
AcDbPolyline
 90
        4
 70
     1
 43
0.0
 10
697000.0000025
 20
4348999.999995
 10
695999.99999
 20
4348999.999995
 10
695999.99999
 20
4350000.0000075
 10
697000.0000025
 20
4350000.0000075
  0
LWPOLYLINE
  5
9D
330
1F
100
AcDbEntity
  8
Manhattan_UTM14_Clip
100
AcDbPolyline
 90
        5
 70
     1
 43
0.0
 10
697000.0000025
 20
4350447.69081
 10
697000.0000025
 20
4350000.0000075
 10
695999.99999
 20
4350000.0000075
 10
695999.99999
 20
4350727.319595
 10
696400.8012425
 20
4350447.69081
  0
LWPOLYLINE
  5
9E
330
1F
100
AcDbEntity
  8
Manhattan_UTM14_Clip
100
AcDbPolyline
 90
        4
 70
     1
 43
0.0
 10
697999.9999924999
 20
4327780.9501275
 10
697657.73915
 20
4327634.2669125
 10
697621.1658725001
 20
4328000.0000025
 10
697999.9999924999
 20
4328000.0000025
  0
LWPOLYLINE
  5
9F
330
1F
100
AcDbEntity
  8
Manhattan_UTM14_Clip
100
AcDbPolyline
 90
        4
 70
     1
 43
0.0
 10
697999.9999924999
 20
4328000.0000025
 10
697621.1658725001
 20
4328000.0000025
 10
697594.8923075
 20
4328262.7359225
 10
697999.9999924999
 20
4328352.7598175
  0
LWPOLYLINE
  5
A0
330
1F
100
AcDbEntity
  8
Manhattan_UTM14_Clip
100
AcDbPolyline
 90
        4
 70
     1
 43
0.0
 10
697999.9999924999
 20
4344717.511680001
 10
697657.7391725
 20
4344917.1638325
 10
697338.22826
 20
4344999.99999
 10
697999.9999924999
 20
4344999.99999
  0
LWPOLYLINE
  5
A1
330
1F
100
AcDbEntity
  8
Manhattan_UTM14_Clip
100
AcDbPolyline
 90
        5
 70
     1
 43
0.0
 10
697999.9999924999
 20
4344999.99999
 10
697338.22826
 20
4344999.99999
 10
697000.0000025
 20
4345087.68879
 10
697000.0000025
 20
4346000.0000025
 10
697999.9999924999
 20
4346000.0000025
  0
LWPOLYLINE
  5
A2
330
1F
100
AcDbEntity
  8
Manhattan_UTM14_Clip
100
AcDbPolyline
 90
        4
 70
     1
 43
0.0
 10
697999.9999924999
 20
4346000.0000025
 10
697000.0000025
 20
4346000.0000025
 10
697000.0000025
 20
4346999.9999925
 10
697999.9999924999
 20
4346999.9999925
  0
LWPOLYLINE
  5
A3
330
1F
100
AcDbEntity
  8
Manhattan_UTM14_Clip
100
AcDbPolyline
 90
        4
 70
     1
 43
0.0
 10
697999.9999924999
 20
4346999.9999925
 10
697000.0000025
 20
4346999.9999925
 10
697000.0000025
 20
4348000.000005
 10
697999.9999924999
 20
4348000.000005
  0
LWPOLYLINE
  5
A4
330
1F
100
AcDbEntity
  8
Manhattan_UTM14_Clip
100
AcDbPolyline
 90
        4
 70
     1
 43
0.0
 10
697999.9999924999
 20
4348000.000005
 10
697000.0000025
 20
4348000.000005
 10
697000.0000025
 20
4348999.999995
 10
697999.9999924999
 20
4348999.999995
  0
LWPOLYLINE
  5
A5
330
1F
100
AcDbEntity
  8
Manhattan_UTM14_Clip
100
AcDbPolyline
 90
        4
 70
     1
 43
0.0
 10
697999.9999924999
 20
4348999.999995
 10
697000.0000025
 20
4348999.999995
 10
697000.0000025
 20
4350000.0000075
 10
697999.9999924999
 20
4350000.0000075
  0
LWPOLYLINE
  5
A6
330
1F
100
AcDbEntity
  8
Manhattan_UTM14_Clip
100
AcDbPolyline
 90
        5
 70
     1
 43
0.0
 10
697999.9999924999
 20
4350304.4188425
 10
697999.9999924999
 20
4350000.0000075
 10
697000.0000025
 20
4350000.0000075
 10
697000.0000025
 20
4350447.69081
 10
697657.7391725
 20
4350447.69081
  0
LWPOLYLINE
  5
A7
330
1F
100
AcDbEntity
  8
Manhattan_UTM14_Clip
100
AcDbPolyline
 90
        3
 70
     1
 43
0.0
 10
697999.9999924999
 20
4327780.9501275
 10
697999.9999924999
 20
4328000.0000025
 10
698511.11636
 20
4328000.0000025
  0
LWPOLYLINE
  5
A8
330
1F
100
AcDbEntity
  8
Manhattan_UTM14_Clip
100
AcDbPolyline
 90
        7
 70
     1
 43
0.0
 10
699000.000005
 20
4328209.521555
 10
698511.11636
 20
4328000.0000025
 10
697999.9999924999
 20
4328000.0000025
 10
697999.9999924999
 20
4328352.7598175
 10
698160.514385
 20
4328388.429675
 10
698690.54198
 20
4328999.9999925
 10
699000.000005
 20
4328999.9999925
  0
LWPOLYLINE
  5
A9
330
1F
100
AcDbEntity
  8
Manhattan_UTM14_Clip
100
AcDbPolyline
 90
        4
 70
     1
 43
0.0
 10
699000.000005
 20
4328999.9999925
 10
698690.54198
 20
4328999.9999925
 10
698977.5240575
 20
4329331.1331675
 10
699000.000005
 20
4329421.0369575
  0
LWPOLYLINE
  5
AA
330
1F
100
AcDbEntity
  8
Manhattan_UTM14_Clip
100
AcDbPolyline
 90
        5
 70
     1
 43
0.0
 10
699000.000005
 20
4330528.13526
 10
698977.5240575
 20
4330588.0711425
 10
698851.8302375
 20
4330902.30558
 10
698862.6851825001
 20
4330999.999995
 10
699000.000005
 20
4330999.999995
  0
LWPOLYLINE
  5
AB
330
1F
100
AcDbEntity
  8
Manhattan_UTM14_Clip
100
AcDbPolyline
 90
        5
 70
     1
 43
0.0
 10
699000.000005
 20
4330999.999995
 10
698862.6851825001
 20
4330999.999995
 10
698914.6771475
 20
4331467.9276575
 10
698441.7239525
 20
4332000.0000075
 10
699000.000005
 20
4332000.0000075
  0
LWPOLYLINE
  5
AC
330
1F
100
AcDbEntity
  8
Manhattan_UTM14_Clip
100
AcDbPolyline
 90
        6
 70
     1
 43
0.0
 10
699000.000005
 20
4332000.0000075
 10
698441.7239525
 20
4332000.0000075
 10
698411.90198
 20
4332033.549735
 10
698160.514385
 20
4332662.018745
 10
698286.20816
 20
4332850.559475
 10
699000.000005
 20
4332850.559475
  0
LWPOLYLINE
  5
AD
330
1F
100
AcDbEntity
  8
Manhattan_UTM14_Clip
100
AcDbPolyline
 90
        5
 70
     1
 43
0.0
 10
699000.000005
 20
4343692.1683425
 10
698977.5240575
 20
4343723.0727675
 10
698474.7488225
 20
4343911.61343
 10
698464.9280899999
 20
4344000.0
 10
699000.000005
 20
4344000.0
  0
LWPOLYLINE
  5
AE
330
1F
100
AcDbEntity
  8
Manhattan_UTM14_Clip
100
AcDbPolyline
 90
        6
 70
     1
 43
0.0
 10
699000.000005
 20
4344000.0
 10
698464.9280899999
 20
4344000.0
 10
698411.90198
 20
4344477.2355075
 10
697999.9999924999
 20
4344717.511680001
 10
697999.9999924999
 20
4344999.99999
 10
699000.000005
 20
4344999.99999
  0
LWPOLYLINE
  5
AF
330
1F
100
AcDbEntity
  8
Manhattan_UTM14_Clip
100
AcDbPolyline
 90
        4
 70
     1
 43
0.0
 10
699000.000005
 20
4344999.99999
 10
697999.9999924999
 20
4344999.99999
 10
697999.9999924999
 20
4346000.0000025
 10
699000.000005
 20
4346000.0000025
  0
LWPOLYLINE
  5
B0
330
1F
100
AcDbEntity
  8
Manhattan_UTM14_Clip
100
AcDbPolyline
 90
        4
 70
     1
 43
0.0
 10
699000.000005
 20
4346000.0000025
 10
697999.9999924999
 20
4346000.0000025
 10
697999.9999924999
 20
4346999.9999925
 10
699000.000005
 20
4346999.9999925
  0
LWPOLYLINE
  5
B1
330
1F
100
AcDbEntity
  8
Manhattan_UTM14_Clip
100
AcDbPolyline
 90
        4
 70
     1
 43
0.0
 10
699000.000005
 20
4346999.9999925
 10
697999.9999924999
 20
4346999.9999925
 10
697999.9999924999
 20
4348000.000005
 10
699000.000005
 20
4348000.000005
  0
LWPOLYLINE
  5
B2
330
1F
100
AcDbEntity
  8
Manhattan_UTM14_Clip
100
AcDbPolyline
 90
        4
 70
     1
 43
0.0
 10
699000.000005
 20
4348000.000005
 10
697999.9999924999
 20
4348000.000005
 10
697999.9999924999
 20
4348999.999995
 10
699000.000005
 20
4348999.999995
  0
LWPOLYLINE
  5
B3
330
1F
100
AcDbEntity
  8
Manhattan_UTM14_Clip
100
AcDbPolyline
 90
        5
 70
     1
 43
0.0
 10
699000.000005
 20
4349885.814195
 10
699000.000005
 20
4348999.999995
 10
697999.9999924999
 20
4348999.999995
 10
697999.9999924999
 20
4350000.0000075
 10
698727.222785
 20
4350000.0000075
  0
LWPOLYLINE
  5
B4
330
1F
100
AcDbEntity
  8
Manhattan_UTM14_Clip
100
AcDbPolyline
 90
        3
 70
     1
 43
0.0
 10
698727.222785
 20
4350000.0000075
 10
697999.9999924999
 20
4350000.0000075
 10
697999.9999924999
 20
4350304.4188425
  0
LWPOLYLINE
  5
B5
330
1F
100
AcDbEntity
  8
Manhattan_UTM14_Clip
100
AcDbPolyline
 90
        4
 70
     1
 43
0.0
 10
699999.999995
 20
4328638.0929825
 10
699000.000005
 20
4328209.521555
 10
699000.000005
 20
4328999.9999925
 10
699999.999995
 20
4328999.9999925
  0
LWPOLYLINE
  5
B6
330
1F
100
AcDbEntity
  8
Manhattan_UTM14_Clip
100
AcDbPolyline
 90
        5
 70
     1
 43
0.0
 10
699999.999995
 20
4328999.9999925
 10
699000.000005
 20
4328999.9999925
 10
699000.000005
 20
4329421.0369575
 10
699144.74075
 20
4330000.000005
 10
699999.999995
 20
4330000.000005
  0
LWPOLYLINE
  5
B7
330
1F
100
AcDbEntity
  8
Manhattan_UTM14_Clip
100
AcDbPolyline
 90
        6
 70
     1
 43
0.0
 10
699999.999995
 20
4330000.000005
 10
699144.74075
 20
4330000.000005
 10
699166.06472
 20
4330085.2959075
 10
699000.000005
 20
4330528.13526
 10
699000.000005
 20
4330999.999995
 10
699999.999995
 20
4330999.999995
  0
LWPOLYLINE
  5
B8
330
1F
100
AcDbEntity
  8
Manhattan_UTM14_Clip
100
AcDbPolyline
 90
        4
 70
     1
 43
0.0
 10
699999.999995
 20
4330999.999995
 10
699000.000005
 20
4330999.999995
 10
699000.000005
 20
4332000.0000075
 10
699999.999995
 20
4332000.0000075
  0
LWPOLYLINE
  5
B9
330
1F
100
AcDbEntity
  8
Manhattan_UTM14_Clip
100
AcDbPolyline
 90
        5
 70
     1
 43
0.0
 10
699999.999995
 20
4332000.0000075
 10
699000.000005
 20
4332000.0000075
 10
699000.000005
 20
4332850.559475
 10
699605.9929775
 20
4332850.559475
 10
699999.999995
 20
4332993.8347275
  0
LWPOLYLINE
  5
BA
330
1F
100
AcDbEntity
  8
Manhattan_UTM14_Clip
100
AcDbPolyline
 90
        5
 70
     1
 43
0.0
 10
699999.999995
 20
4343031.7568475
 10
699480.299225
 20
4343031.7568475
 10
699000.000005
 20
4343692.1683425
 10
699000.000005
 20
4344000.0
 10
699999.999995
 20
4344000.0
  0
LWPOLYLINE
  5
BB
330
1F
100
AcDbEntity
  8
Manhattan_UTM14_Clip
100
AcDbPolyline
 90
        4
 70
     1
 43
0.0
 10
699999.999995
 20
4344000.0
 10
699000.000005
 20
4344000.0
 10
699000.000005
 20
4344999.99999
 10
699999.999995
 20
4344999.99999
  0
LWPOLYLINE
  5
BC
330
1F
100
AcDbEntity
  8
Manhattan_UTM14_Clip
100
AcDbPolyline
 90
        4
 70
     1
 43
0.0
 10
699999.999995
 20
4344999.99999
 10
699000.000005
 20
4344999.99999
 10
699000.000005
 20
4346000.0000025
 10
699999.999995
 20
4346000.0000025
  0
LWPOLYLINE
  5
BD
330
1F
100
AcDbEntity
  8
Manhattan_UTM14_Clip
100
AcDbPolyline
 90
        4
 70
     1
 43
0.0
 10
699999.999995
 20
4346000.0000025
 10
699000.000005
 20
4346000.0000025
 10
699000.000005
 20
4346999.9999925
 10
699999.999995
 20
4346999.9999925
  0
LWPOLYLINE
  5
BE
330
1F
100
AcDbEntity
  8
Manhattan_UTM14_Clip
100
AcDbPolyline
 90
        4
 70
     1
 43
0.0
 10
699999.999995
 20
4346999.9999925
 10
699000.000005
 20
4346999.9999925
 10
699000.000005
 20
4348000.000005
 10
699999.999995
 20
4348000.000005
  0
LWPOLYLINE
  5
BF
330
1F
100
AcDbEntity
  8
Manhattan_UTM14_Clip
100
AcDbPolyline
 90
        4
 70
     1
 43
0.0
 10
699999.999995
 20
4348000.000005
 10
699000.000005
 20
4348000.000005
 10
699000.000005
 20
4348999.999995
 10
699999.999995
 20
4348999.999995
  0
LWPOLYLINE
  5
C0
330
1F
100
AcDbEntity
  8
Manhattan_UTM14_Clip
100
AcDbPolyline
 90
        4
 70
     1
 43
0.0
 10
699999.999995
 20
4349467.2095475
 10
699999.999995
 20
4348999.999995
 10
699000.000005
 20
4348999.999995
 10
699000.000005
 20
4349885.814195
  0
LWPOLYLINE
  5
C1
330
1F
100
AcDbEntity
  8
Manhattan_UTM14_Clip
100
AcDbPolyline
 90
        3
 70
     1
 43
0.0
 10
699999.999995
 20
4328638.0929825
 10
699999.999995
 20
4328999.9999925
 10
700844.4497
 20
4328999.9999925
  0
LWPOLYLINE
  5
C2
330
1F
100
AcDbEntity
  8
Manhattan_UTM14_Clip
100
AcDbPolyline
 90
        5
 70
     1
 43
0.0
 10
701000.0000075001
 20
4329066.66441
 10
700844.4497
 20
4328999.9999925
 10
699999.999995
 20
4328999.9999925
 10
699999.999995
 20
4330000.000005
 10
701000.0000075001
 20
4330000.000005
  0
LWPOLYLINE
  5
C3
330
1F
100
AcDbEntity
  8
Manhattan_UTM14_Clip
100
AcDbPolyline
 90
        4
 70
     1
 43
0.0
 10
701000.0000075001
 20
4330000.000005
 10
699999.999995
 20
4330000.000005
 10
699999.999995
 20
4330999.999995
 10
701000.0000075001
 20
4330999.999995
  0
LWPOLYLINE
  5
C4
330
1F
100
AcDbEntity
  8
Manhattan_UTM14_Clip
100
AcDbPolyline
 90
        4
 70
     1
 43
0.0
 10
701000.0000075001
 20
4330999.999995
 10
699999.999995
 20
4330999.999995
 10
699999.999995
 20
4332000.0000075
 10
701000.0000075001
 20
4332000.0000075
  0
LWPOLYLINE
  5
C5
330
1F
100
AcDbEntity
  8
Manhattan_UTM14_Clip
100
AcDbPolyline
 90
        5
 70
     1
 43
0.0
 10
701000.0000075001
 20
4332000.0000075
 10
699999.999995
 20
4332000.0000075
 10
699999.999995
 20
4332993.8347275
 10
700016.9544875
 20
4332999.9999975
 10
701000.0000075001
 20
4332999.9999975
  0
LWPOLYLINE
  5
C6
330
1F
100
AcDbEntity
  8
Manhattan_UTM14_Clip
100
AcDbPolyline
 90
        5
 70
     1
 43
0.0
 10
701000.0000075001
 20
4332999.9999975
 10
700016.9544875
 20
4332999.9999975
 10
700297.3088975
 20
4333101.9470475
 10
700925.777885
 20
4333353.3346425
 10
701000.0000075001
 20
4333531.4677275
  0
LWPOLYLINE
  5
C7
330
1F
100
AcDbEntity
  8
Manhattan_UTM14_Clip
100
AcDbPolyline
 90
        4
 70
     1
 43
0.0
 10
701000.0000075001
 20
4342208.03529
 10
700862.930975
 20
4342591.82859
 10
700221.5186825
 20
4343000.00001
 10
701000.0000075001
 20
4343000.00001
  0
LWPOLYLINE
  5
C8
330
1F
100
AcDbEntity
  8
Manhattan_UTM14_Clip
100
AcDbPolyline
 90
        6
 70
     1
 43
0.0
 10
701000.0000075001
 20
4343000.00001
 10
700221.5186825
 20
4343000.00001
 10
700171.6150775
 20
4343031.7568475
 10
699999.999995
 20
4343031.7568475
 10
699999.999995
 20
4344000.0
 10
701000.0000075001
 20
4344000.0
  0
LWPOLYLINE
  5
C9
330
1F
100
AcDbEntity
  8
Manhattan_UTM14_Clip
100
AcDbPolyline
 90
        4
 70
     1
 43
0.0
 10
701000.0000075001
 20
4344000.0
 10
699999.999995
 20
4344000.0
 10
699999.999995
 20
4344999.99999
 10
701000.0000075001
 20
4344999.99999
  0
LWPOLYLINE
  5
CA
330
1F
100
AcDbEntity
  8
Manhattan_UTM14_Clip
100
AcDbPolyline
 90
        4
 70
     1
 43
0.0
 10
701000.0000075001
 20
4344999.99999
 10
699999.999995
 20
4344999.99999
 10
699999.999995
 20
4346000.0000025
 10
701000.0000075001
 20
4346000.0000025
  0
LWPOLYLINE
  5
CB
330
1F
100
AcDbEntity
  8
Manhattan_UTM14_Clip
100
AcDbPolyline
 90
        4
 70
     1
 43
0.0
 10
701000.0000075001
 20
4346000.0000025
 10
699999.999995
 20
4346000.0000025
 10
699999.999995
 20
4346999.9999925
 10
701000.0000075001
 20
4346999.9999925
  0
LWPOLYLINE
  5
CC
330
1F
100
AcDbEntity
  8
Manhattan_UTM14_Clip
100
AcDbPolyline
 90
        6
 70
     1
 43
0.0
 10
701000.0000075001
 20
4347935.227995
 10
701000.0000075001
 20
4346999.9999925
 10
699999.999995
 20
4346999.9999925
 10
699999.999995
 20
4348000.000005
 10
700838.86367
 20
4348000.000005
 10
700862.930975
 20
4347933.814905
  0
LWPOLYLINE
  5
CD
330
1F
100
AcDbEntity
  8
Manhattan_UTM14_Clip
100
AcDbPolyline
 90
        4
 70
     1
 43
0.0
 10
700838.86367
 20
4348000.000005
 10
699999.999995
 20
4348000.000005
 10
699999.999995
 20
4348999.999995
 10
700475.22731
 20
4348999.999995
  0
LWPOLYLINE
  5
CE
330
1F
100
AcDbEntity
  8
Manhattan_UTM14_Clip
100
AcDbPolyline
 90
        4
 70
     1
 43
0.0
 10
700475.22731
 20
4348999.999995
 10
699999.999995
 20
4348999.999995
 10
699999.999995
 20
4349467.2095475
 10
700360.1558075
 20
4349316.446655
  0
LWPOLYLINE
  5
CF
330
1F
100
AcDbEntity
  8
Manhattan_UTM14_Clip
100
AcDbPolyline
 90
        4
 70
     1
 43
0.0
 10
701999.9999975
 20
4329495.2358375
 10
701000.0000075001
 20
4329066.66441
 10
701000.0000075001
 20
4330000.000005
 10
701999.9999975
 20
4330000.000005
  0
LWPOLYLINE
  5
D0
330
1F
100
AcDbEntity
  8
Manhattan_UTM14_Clip
100
AcDbPolyline
 90
        4
 70
     1
 43
0.0
 10
701999.9999975
 20
4330000.000005
 10
701000.0000075001
 20
4330000.000005
 10
701000.0000075001
 20
4330999.999995
 10
701999.9999975
 20
4330999.999995
  0
LWPOLYLINE
  5
D1
330
1F
100
AcDbEntity
  8
Manhattan_UTM14_Clip
100
AcDbPolyline
 90
        4
 70
     1
 43
0.0
 10
701999.9999975
 20
4330999.999995
 10
701000.0000075001
 20
4330999.999995
 10
701000.0000075001
 20
4332000.0000075
 10
701999.9999975
 20
4332000.0000075
  0
LWPOLYLINE
  5
D2
330
1F
100
AcDbEntity
  8
Manhattan_UTM14_Clip
100
AcDbPolyline
 90
        4
 70
     1
 43
0.0
 10
701999.9999975
 20
4332000.0000075
 10
701000.0000075001
 20
4332000.0000075
 10
701000.0000075001
 20
4332999.9999975
 10
701999.9999975
 20
4332999.9999975
  0
LWPOLYLINE
  5
D3
330
1F
100
AcDbEntity
  8
Manhattan_UTM14_Clip
100
AcDbPolyline
 90
        5
 70
     1
 43
0.0
 10
701999.9999975
 20
4332999.9999975
 10
701000.0000075001
 20
4332999.9999975
 10
701000.0000075001
 20
4333531.4677275
 10
701195.2217975
 20
4334000.00001
 10
701999.9999975
 20
4334000.00001
  0
LWPOLYLINE
  5
D4
330
1F
100
AcDbEntity
  8
Manhattan_UTM14_Clip
100
AcDbPolyline
 90
        5
 70
     1
 43
0.0
 10
701999.9999975
 20
4334000.00001
 10
701195.2217975
 20
4334000.00001
 10
701240.0123675
 20
4334107.4973825
 10
701228.421425
 20
4335000.0
 10
701999.9999975
 20
4335000.0
  0
LWPOLYLINE
  5
D5
330
1F
100
AcDbEntity
  8
Manhattan_UTM14_Clip
100
AcDbPolyline
 90
        4
 70
     1
 43
0.0
 10
701999.9999975
 20
4335000.0
 10
701228.421425
 20
4335000.0
 10
701215.4344025001
 20
4335999.99999
 10
701999.9999975
 20
4335999.99999
  0
LWPOLYLINE
  5
D6
330
1F
100
AcDbEntity
  8
Manhattan_UTM14_Clip
100
AcDbPolyline
 90
        4
 70
     1
 43
0.0
 10
701999.9999975
 20
4335999.99999
 10
701215.4344025001
 20
4335999.99999
 10
701202.44738
 20
4337000.0000025
 10
701999.9999975
 20
4337000.0000025
  0
LWPOLYLINE
  5
D7
330
1F
100
AcDbEntity
  8
Manhattan_UTM14_Clip
100
AcDbPolyline
 90
        4
 70
     1
 43
0.0
 10
701999.9999975
 20
4337000.0000025
 10
701202.44738
 20
4337000.0000025
 10
701189.46038
 20
4337999.9999925
 10
701999.9999975
 20
4337999.9999925
  0
LWPOLYLINE
  5
D8
330
1F
100
AcDbEntity
  8
Manhattan_UTM14_Clip
100
AcDbPolyline
 90
        5
 70
     1
 43
0.0
 10
701999.9999975
 20
4337999.9999925
 10
701189.46038
 20
4337999.9999925
 10
701177.1654575
 20
4338946.70853
 10
701177.1654575
 20
4339000.000005
 10
701999.9999975
 20
4339000.000005
  0
LWPOLYLINE
  5
D9
330
1F
100
AcDbEntity
  8
Manhattan_UTM14_Clip
100
AcDbPolyline
 90
        4
 70
     1
 43
0.0
 10
701999.9999975
 20
4339000.000005
 10
701177.1654575
 20
4339000.000005
 10
701177.1654575
 20
4339999.999995
 10
701999.9999975
 20
4339999.999995
  0
LWPOLYLINE
  5
DA
330
1F
100
AcDbEntity
  8
Manhattan_UTM14_Clip
100
AcDbPolyline
 90
        4
 70
     1
 43
0.0
 10
701999.9999975
 20
4339999.999995
 10
701177.1654575
 20
4339999.999995
 10
701177.1654575
 20
4341000.0000075
 10
701999.9999975
 20
4341000.0000075
  0
LWPOLYLINE
  5
DB
330
1F
100
AcDbEntity
  8
Manhattan_UTM14_Clip
100
AcDbPolyline
 90
        5
 70
     1
 43
0.0
 10
701999.9999975
 20
4341000.0000075
 10
701177.1654575
 20
4341000.0000075
 10
701177.1654575
 20
4341711.97203
 10
701074.2983375
 20
4341999.9999975
 10
701999.9999975
 20
4341999.9999975
  0
LWPOLYLINE
  5
DC
330
1F
100
AcDbEntity
  8
Manhattan_UTM14_Clip
100
AcDbPolyline
 90
        5
 70
     1
 43
0.0
 10
701999.9999975
 20
4341999.9999975
 10
701074.2983375
 20
4341999.9999975
 10
701000.0000075001
 20
4342208.03529
 10
701000.0000075001
 20
4343000.00001
 10
701999.9999975
 20
4343000.00001
  0
LWPOLYLINE
  5
DD
330
1F
100
AcDbEntity
  8
Manhattan_UTM14_Clip
100
AcDbPolyline
 90
        4
 70
     1
 43
0.0
 10
701999.9999975
 20
4343000.00001
 10
701000.0000075001
 20
4343000.00001
 10
701000.0000075001
 20
4344000.0
 10
701999.9999975
 20
4344000.0
  0
LWPOLYLINE
  5
DE
330
1F
100
AcDbEntity
  8
Manhattan_UTM14_Clip
100
AcDbPolyline
 90
        4
 70
     1
 43
0.0
 10
701999.9999975
 20
4344000.0
 10
701000.0000075001
 20
4344000.0
 10
701000.0000075001
 20
4344999.99999
 10
701999.9999975
 20
4344999.99999
  0
LWPOLYLINE
  5
DF
330
1F
100
AcDbEntity
  8
Manhattan_UTM14_Clip
100
AcDbPolyline
 90
        4
 70
     1
 43
0.0
 10
701999.9999975
 20
4344999.99999
 10
701000.0000075001
 20
4344999.99999
 10
701000.0000075001
 20
4346000.0000025
 10
701999.9999975
 20
4346000.0000025
  0
LWPOLYLINE
  5
E0
330
1F
100
AcDbEntity
  8
Manhattan_UTM14_Clip
100
AcDbPolyline
 90
        4
 70
     1
 43
0.0
 10
701999.9999975
 20
4346000.0000025
 10
701000.0000075001
 20
4346000.0000025
 10
701000.0000075001
 20
4346999.9999925
 10
701999.9999975
 20
4346999.9999925
  0
LWPOLYLINE
  5
E1
330
1F
100
AcDbEntity
  8
Manhattan_UTM14_Clip
100
AcDbPolyline
 90
        4
 70
     1
 43
0.0
 10
701999.9999975
 20
4346999.9999925
 10
701000.0000075001
 20
4346999.9999925
 10
701000.0000075001
 20
4347935.227995
 10
701999.9999975
 20
4347945.53727
  0
LWPOLYLINE
  5
E2
330
1F
100
AcDbEntity
  8
Manhattan_UTM14_Clip
100
AcDbPolyline
 90
        4
 70
     1
 43
0.0
 10
703000.00001
 20
4329923.807265
 10
701999.9999975
 20
4329495.2358375
 10
701999.9999975
 20
4330000.000005
 10
703000.00001
 20
4330000.000005
  0
LWPOLYLINE
  5
E3
330
1F
100
AcDbEntity
  8
Manhattan_UTM14_Clip
100
AcDbPolyline
 90
        4
 70
     1
 43
0.0
 10
703000.00001
 20
4330000.000005
 10
701999.9999975
 20
4330000.000005
 10
701999.9999975
 20
4330999.999995
 10
703000.00001
 20
4330999.999995
  0
LWPOLYLINE
  5
E4
330
1F
100
AcDbEntity
  8
Manhattan_UTM14_Clip
100
AcDbPolyline
 90
        4
 70
     1
 43
0.0
 10
703000.00001
 20
4330999.999995
 10
701999.9999975
 20
4330999.999995
 10
701999.9999975
 20
4332000.0000075
 10
703000.00001
 20
4332000.0000075
  0
LWPOLYLINE
  5
E5
330
1F
100
AcDbEntity
  8
Manhattan_UTM14_Clip
100
AcDbPolyline
 90
        4
 70
     1
 43
0.0
 10
703000.00001
 20
4332000.0000075
 10
701999.9999975
 20
4332000.0000075
 10
701999.9999975
 20
4332999.9999975
 10
703000.00001
 20
4332999.9999975
  0
LWPOLYLINE
  5
E6
330
1F
100
AcDbEntity
  8
Manhattan_UTM14_Clip
100
AcDbPolyline
 90
        4
 70
     1
 43
0.0
 10
703000.00001
 20
4332999.9999975
 10
701999.9999975
 20
4332999.9999975
 10
701999.9999975
 20
4334000.00001
 10
703000.00001
 20
4334000.00001
  0
LWPOLYLINE
  5
E7
330
1F
100
AcDbEntity
  8
Manhattan_UTM14_Clip
100
AcDbPolyline
 90
        4
 70
     1
 43
0.0
 10
703000.00001
 20
4334000.00001
 10
701999.9999975
 20
4334000.00001
 10
701999.9999975
 20
4335000.0
 10
703000.00001
 20
4335000.0
  0
LWPOLYLINE
  5
E8
330
1F
100
AcDbEntity
  8
Manhattan_UTM14_Clip
100
AcDbPolyline
 90
        4
 70
     1
 43
0.0
 10
703000.00001
 20
4335000.0
 10
701999.9999975
 20
4335000.0
 10
701999.9999975
 20
4335999.99999
 10
703000.00001
 20
4335999.99999
  0
LWPOLYLINE
  5
E9
330
1F
100
AcDbEntity
  8
Manhattan_UTM14_Clip
100
AcDbPolyline
 90
        4
 70
     1
 43
0.0
 10
703000.00001
 20
4335999.99999
 10
701999.9999975
 20
4335999.99999
 10
701999.9999975
 20
4337000.0000025
 10
703000.00001
 20
4337000.0000025
  0
LWPOLYLINE
  5
EA
330
1F
100
AcDbEntity
  8
Manhattan_UTM14_Clip
100
AcDbPolyline
 90
        4
 70
     1
 43
0.0
 10
703000.00001
 20
4337000.0000025
 10
701999.9999975
 20
4337000.0000025
 10
701999.9999975
 20
4337999.9999925
 10
703000.00001
 20
4337999.9999925
  0
LWPOLYLINE
  5
EB
330
1F
100
AcDbEntity
  8
Manhattan_UTM14_Clip
100
AcDbPolyline
 90
        4
 70
     1
 43
0.0
 10
703000.00001
 20
4337999.9999925
 10
701999.9999975
 20
4337999.9999925
 10
701999.9999975
 20
4339000.000005
 10
703000.00001
 20
4339000.000005
  0
LWPOLYLINE
  5
EC
330
1F
100
AcDbEntity
  8
Manhattan_UTM14_Clip
100
AcDbPolyline
 90
        4
 70
     1
 43
0.0
 10
703000.00001
 20
4339000.000005
 10
701999.9999975
 20
4339000.000005
 10
701999.9999975
 20
4339999.999995
 10
703000.00001
 20
4339999.999995
  0
LWPOLYLINE
  5
ED
330
1F
100
AcDbEntity
  8
Manhattan_UTM14_Clip
100
AcDbPolyline
 90
        4
 70
     1
 43
0.0
 10
703000.00001
 20
4339999.999995
 10
701999.9999975
 20
4339999.999995
 10
701999.9999975
 20
4341000.0000075
 10
703000.00001
 20
4341000.0000075
  0
LWPOLYLINE
  5
EE
330
1F
100
AcDbEntity
  8
Manhattan_UTM14_Clip
100
AcDbPolyline
 90
        4
 70
     1
 43
0.0
 10
703000.00001
 20
4341000.0000075
 10
701999.9999975
 20
4341000.0000075
 10
701999.9999975
 20
4341999.9999975
 10
703000.00001
 20
4341999.9999975
  0
LWPOLYLINE
  5
EF
330
1F
100
AcDbEntity
  8
Manhattan_UTM14_Clip
100
AcDbPolyline
 90
        4
 70
     1
 43
0.0
 10
703000.00001
 20
4341999.9999975
 10
701999.9999975
 20
4341999.9999975
 10
701999.9999975
 20
4343000.00001
 10
703000.00001
 20
4343000.00001
  0
LWPOLYLINE
  5
F0
330
1F
100
AcDbEntity
  8
Manhattan_UTM14_Clip
100
AcDbPolyline
 90
        4
 70
     1
 43
0.0
 10
703000.00001
 20
4343000.00001
 10
701999.9999975
 20
4343000.00001
 10
701999.9999975
 20
4344000.0
 10
703000.00001
 20
4344000.0
  0
LWPOLYLINE
  5
F1
330
1F
100
AcDbEntity
  8
Manhattan_UTM14_Clip
100
AcDbPolyline
 90
        4
 70
     1
 43
0.0
 10
703000.00001
 20
4344000.0
 10
701999.9999975
 20
4344000.0
 10
701999.9999975
 20
4344999.99999
 10
703000.00001
 20
4344999.99999
  0
LWPOLYLINE
  5
F2
330
1F
100
AcDbEntity
  8
Manhattan_UTM14_Clip
100
AcDbPolyline
 90
        4
 70
     1
 43
0.0
 10
703000.00001
 20
4344999.99999
 10
701999.9999975
 20
4344999.99999
 10
701999.9999975
 20
4346000.0000025
 10
703000.00001
 20
4346000.0000025
  0
LWPOLYLINE
  5
F3
330
1F
100
AcDbEntity
  8
Manhattan_UTM14_Clip
100
AcDbPolyline
 90
        4
 70
     1
 43
0.0
 10
703000.00001
 20
4346000.0000025
 10
701999.9999975
 20
4346000.0000025
 10
701999.9999975
 20
4346999.9999925
 10
703000.00001
 20
4346999.9999925
  0
LWPOLYLINE
  5
F4
330
1F
100
AcDbEntity
  8
Manhattan_UTM14_Clip
100
AcDbPolyline
 90
        4
 70
     1
 43
0.0
 10
703000.00001
 20
4346999.9999925
 10
701999.9999975
 20
4346999.9999925
 10
701999.9999975
 20
4347945.53727
 10
703000.00001
 20
4347955.8465675
  0
LWPOLYLINE
  5
F5
330
1F
100
AcDbEntity
  8
Manhattan_UTM14_Clip
100
AcDbPolyline
 90
        3
 70
     1
 43
0.0
 10
703000.00001
 20
4329923.807265
 10
703000.00001
 20
4330000.000005
 10
703177.7830625
 20
4330000.000005
  0
LWPOLYLINE
  5
F6
330
1F
100
AcDbEntity
  8
Manhattan_UTM14_Clip
100
AcDbPolyline
 90
        5
 70
     1
 43
0.0
 10
704000.0
 20
4330352.3786925
 10
703177.7830625
 20
4330000.000005
 10
703000.00001
 20
4330000.000005
 10
703000.00001
 20
4330999.999995
 10
704000.0
 20
4330999.999995
  0
LWPOLYLINE
  5
F7
330
1F
100
AcDbEntity
  8
Manhattan_UTM14_Clip
100
AcDbPolyline
 90
        4
 70
     1
 43
0.0
 10
704000.0
 20
4330999.999995
 10
703000.00001
 20
4330999.999995
 10
703000.00001
 20
4332000.0000075
 10
704000.0
 20
4332000.0000075
  0
LWPOLYLINE
  5
F8
330
1F
100
AcDbEntity
  8
Manhattan_UTM14_Clip
100
AcDbPolyline
 90
        4
 70
     1
 43
0.0
 10
704000.0
 20
4332000.0000075
 10
703000.00001
 20
4332000.0000075
 10
703000.00001
 20
4332999.9999975
 10
704000.0
 20
4332999.9999975
  0
LWPOLYLINE
  5
F9
330
1F
100
AcDbEntity
  8
Manhattan_UTM14_Clip
100
AcDbPolyline
 90
        4
 70
     1
 43
0.0
 10
704000.0
 20
4332999.9999975
 10
703000.00001
 20
4332999.9999975
 10
703000.00001
 20
4334000.00001
 10
704000.0
 20
4334000.00001
  0
LWPOLYLINE
  5
FA
330
1F
100
AcDbEntity
  8
Manhattan_UTM14_Clip
100
AcDbPolyline
 90
        4
 70
     1
 43
0.0
 10
704000.0
 20
4334000.00001
 10
703000.00001
 20
4334000.00001
 10
703000.00001
 20
4335000.0
 10
704000.0
 20
4335000.0
  0
LWPOLYLINE
  5
FB
330
1F
100
AcDbEntity
  8
Manhattan_UTM14_Clip
100
AcDbPolyline
 90
        4
 70
     1
 43
0.0
 10
704000.0
 20
4335000.0
 10
703000.00001
 20
4335000.0
 10
703000.00001
 20
4335999.99999
 10
704000.0
 20
4335999.99999
  0
LWPOLYLINE
  5
FC
330
1F
100
AcDbEntity
  8
Manhattan_UTM14_Clip
100
AcDbPolyline
 90
        4
 70
     1
 43
0.0
 10
704000.0
 20
4335999.99999
 10
703000.00001
 20
4335999.99999
 10
703000.00001
 20
4337000.0000025
 10
704000.0
 20
4337000.0000025
  0
LWPOLYLINE
  5
FD
330
1F
100
AcDbEntity
  8
Manhattan_UTM14_Clip
100
AcDbPolyline
 90
        4
 70
     1
 43
0.0
 10
704000.0
 20
4337000.0000025
 10
703000.00001
 20
4337000.0000025
 10
703000.00001
 20
4337999.9999925
 10
704000.0
 20
4337999.9999925
  0
LWPOLYLINE
  5
FE
330
1F
100
AcDbEntity
  8
Manhattan_UTM14_Clip
100
AcDbPolyline
 90
        4
 70
     1
 43
0.0
 10
704000.0
 20
4337999.9999925
 10
703000.00001
 20
4337999.9999925
 10
703000.00001
 20
4339000.000005
 10
704000.0
 20
4339000.000005
  0
LWPOLYLINE
  5
FF
330
1F
100
AcDbEntity
  8
Manhattan_UTM14_Clip
100
AcDbPolyline
 90
        4
 70
     1
 43
0.0
 10
704000.0
 20
4339000.000005
 10
703000.00001
 20
4339000.000005
 10
703000.00001
 20
4339999.999995
 10
704000.0
 20
4339999.999995
  0
LWPOLYLINE
  5
100
330
1F
100
AcDbEntity
  8
Manhattan_UTM14_Clip
100
AcDbPolyline
 90
        4
 70
     1
 43
0.0
 10
704000.0
 20
4339999.999995
 10
703000.00001
 20
4339999.999995
 10
703000.00001
 20
4341000.0000075
 10
704000.0
 20
4341000.0000075
  0
LWPOLYLINE
  5
101
330
1F
100
AcDbEntity
  8
Manhattan_UTM14_Clip
100
AcDbPolyline
 90
        4
 70
     1
 43
0.0
 10
704000.0
 20
4341000.0000075
 10
703000.00001
 20
4341000.0000075
 10
703000.00001
 20
4341999.9999975
 10
704000.0
 20
4341999.9999975
  0
LWPOLYLINE
  5
102
330
1F
100
AcDbEntity
  8
Manhattan_UTM14_Clip
100
AcDbPolyline
 90
        4
 70
     1
 43
0.0
 10
704000.0
 20
4341999.9999975
 10
703000.00001
 20
4341999.9999975
 10
703000.00001
 20
4343000.00001
 10
704000.0
 20
4343000.00001
  0
LWPOLYLINE
  5
103
330
1F
100
AcDbEntity
  8
Manhattan_UTM14_Clip
100
AcDbPolyline
 90
        4
 70
     1
 43
0.0
 10
704000.0
 20
4343000.00001
 10
703000.00001
 20
4343000.00001
 10
703000.00001
 20
4344000.0
 10
704000.0
 20
4344000.0
  0
LWPOLYLINE
  5
104
330
1F
100
AcDbEntity
  8
Manhattan_UTM14_Clip
100
AcDbPolyline
 90
        4
 70
     1
 43
0.0
 10
704000.0
 20
4344000.0
 10
703000.00001
 20
4344000.0
 10
703000.00001
 20
4344999.99999
 10
704000.0
 20
4344999.99999
  0
LWPOLYLINE
  5
105
330
1F
100
AcDbEntity
  8
Manhattan_UTM14_Clip
100
AcDbPolyline
 90
        4
 70
     1
 43
0.0
 10
704000.0
 20
4344999.99999
 10
703000.00001
 20
4344999.99999
 10
703000.00001
 20
4346000.0000025
 10
704000.0
 20
4346000.0000025
  0
LWPOLYLINE
  5
106
330
1F
100
AcDbEntity
  8
Manhattan_UTM14_Clip
100
AcDbPolyline
 90
        4
 70
     1
 43
0.0
 10
704000.0
 20
4346000.0000025
 10
703000.00001
 20
4346000.0000025
 10
703000.00001
 20
4346999.9999925
 10
704000.0
 20
4346999.9999925
  0
LWPOLYLINE
  5
107
330
1F
100
AcDbEntity
  8
Manhattan_UTM14_Clip
100
AcDbPolyline
 90
        4
 70
     1
 43
0.0
 10
704000.0
 20
4346999.9999925
 10
703000.00001
 20
4346999.9999925
 10
703000.00001
 20
4347955.8465675
 10
704000.0
 20
4347966.1558425
  0
LWPOLYLINE
  5
108
330
1F
100
AcDbEntity
  8
Manhattan_UTM14_Clip
100
AcDbPolyline
 90
        4
 70
     1
 43
0.0
 10
704999.99999
 20
4330780.95012
 10
704000.0
 20
4330352.3786925
 10
704000.0
 20
4330999.999995
 10
704999.99999
 20
4330999.999995
  0
LWPOLYLINE
  5
109
330
1F
100
AcDbEntity
  8
Manhattan_UTM14_Clip
100
AcDbPolyline
 90
        4
 70
     1
 43
0.0
 10
704999.99999
 20
4330999.999995
 10
704000.0
 20
4330999.999995
 10
704000.0
 20
4332000.0000075
 10
704999.99999
 20
4332000.0000075
  0
LWPOLYLINE
  5
10A
330
1F
100
AcDbEntity
  8
Manhattan_UTM14_Clip
100
AcDbPolyline
 90
        4
 70
     1
 43
0.0
 10
704999.99999
 20
4332000.0000075
 10
704000.0
 20
4332000.0000075
 10
704000.0
 20
4332999.9999975
 10
704999.99999
 20
4332999.9999975
  0
LWPOLYLINE
  5
10B
330
1F
100
AcDbEntity
  8
Manhattan_UTM14_Clip
100
AcDbPolyline
 90
        4
 70
     1
 43
0.0
 10
704999.99999
 20
4332999.9999975
 10
704000.0
 20
4332999.9999975
 10
704000.0
 20
4334000.00001
 10
704999.99999
 20
4334000.00001
  0
LWPOLYLINE
  5
10C
330
1F
100
AcDbEntity
  8
Manhattan_UTM14_Clip
100
AcDbPolyline
 90
        4
 70
     1
 43
0.0
 10
704999.99999
 20
4334000.00001
 10
704000.0
 20
4334000.00001
 10
704000.0
 20
4335000.0
 10
704999.99999
 20
4335000.0
  0
LWPOLYLINE
  5
10D
330
1F
100
AcDbEntity
  8
Manhattan_UTM14_Clip
100
AcDbPolyline
 90
        4
 70
     1
 43
0.0
 10
704999.99999
 20
4335000.0
 10
704000.0
 20
4335000.0
 10
704000.0
 20
4335999.99999
 10
704999.99999
 20
4335999.99999
  0
LWPOLYLINE
  5
10E
330
1F
100
AcDbEntity
  8
Manhattan_UTM14_Clip
100
AcDbPolyline
 90
        4
 70
     1
 43
0.0
 10
704999.99999
 20
4335999.99999
 10
704000.0
 20
4335999.99999
 10
704000.0
 20
4337000.0000025
 10
704999.99999
 20
4337000.0000025
  0
LWPOLYLINE
  5
10F
330
1F
100
AcDbEntity
  8
Manhattan_UTM14_Clip
100
AcDbPolyline
 90
        4
 70
     1
 43
0.0
 10
704999.99999
 20
4337000.0000025
 10
704000.0
 20
4337000.0000025
 10
704000.0
 20
4337999.9999925
 10
704999.99999
 20
4337999.9999925
  0
LWPOLYLINE
  5
110
330
1F
100
AcDbEntity
  8
Manhattan_UTM14_Clip
100
AcDbPolyline
 90
        4
 70
     1
 43
0.0
 10
704999.99999
 20
4337999.9999925
 10
704000.0
 20
4337999.9999925
 10
704000.0
 20
4339000.000005
 10
704999.99999
 20
4339000.000005
  0
LWPOLYLINE
  5
111
330
1F
100
AcDbEntity
  8
Manhattan_UTM14_Clip
100
AcDbPolyline
 90
        4
 70
     1
 43
0.0
 10
704999.99999
 20
4339000.000005
 10
704000.0
 20
4339000.000005
 10
704000.0
 20
4339999.999995
 10
704999.99999
 20
4339999.999995
  0
LWPOLYLINE
  5
112
330
1F
100
AcDbEntity
  8
Manhattan_UTM14_Clip
100
AcDbPolyline
 90
        4
 70
     1
 43
0.0
 10
704999.99999
 20
4339999.999995
 10
704000.0
 20
4339999.999995
 10
704000.0
 20
4341000.0000075
 10
704999.99999
 20
4341000.0000075
  0
LWPOLYLINE
  5
113
330
1F
100
AcDbEntity
  8
Manhattan_UTM14_Clip
100
AcDbPolyline
 90
        4
 70
     1
 43
0.0
 10
704999.99999
 20
4341000.0000075
 10
704000.0
 20
4341000.0000075
 10
704000.0
 20
4341999.9999975
 10
704999.99999
 20
4341999.9999975
  0
LWPOLYLINE
  5
114
330
1F
100
AcDbEntity
  8
Manhattan_UTM14_Clip
100
AcDbPolyline
 90
        4
 70
     1
 43
0.0
 10
704999.99999
 20
4341999.9999975
 10
704000.0
 20
4341999.9999975
 10
704000.0
 20
4343000.00001
 10
704999.99999
 20
4343000.00001
  0
LWPOLYLINE
  5
115
330
1F
100
AcDbEntity
  8
Manhattan_UTM14_Clip
100
AcDbPolyline
 90
        4
 70
     1
 43
0.0
 10
704999.99999
 20
4343000.00001
 10
704000.0
 20
4343000.00001
 10
704000.0
 20
4344000.0
 10
704999.99999
 20
4344000.0
  0
LWPOLYLINE
  5
116
330
1F
100
AcDbEntity
  8
Manhattan_UTM14_Clip
100
AcDbPolyline
 90
        4
 70
     1
 43
0.0
 10
704999.99999
 20
4344000.0
 10
704000.0
 20
4344000.0
 10
704000.0
 20
4344999.99999
 10
704999.99999
 20
4344999.99999
  0
LWPOLYLINE
  5
117
330
1F
100
AcDbEntity
  8
Manhattan_UTM14_Clip
100
AcDbPolyline
 90
        4
 70
     1
 43
0.0
 10
704999.99999
 20
4344999.99999
 10
704000.0
 20
4344999.99999
 10
704000.0
 20
4346000.0000025
 10
704999.99999
 20
4346000.0000025
  0
LWPOLYLINE
  5
118
330
1F
100
AcDbEntity
  8
Manhattan_UTM14_Clip
100
AcDbPolyline
 90
        4
 70
     1
 43
0.0
 10
704999.99999
 20
4346000.0000025
 10
704000.0
 20
4346000.0000025
 10
704000.0
 20
4346999.9999925
 10
704999.99999
 20
4346999.9999925
  0
LWPOLYLINE
  5
119
330
1F
100
AcDbEntity
  8
Manhattan_UTM14_Clip
100
AcDbPolyline
 90
        4
 70
     1
 43
0.0
 10
704999.99999
 20
4346999.9999925
 10
704000.0
 20
4346999.9999925
 10
704000.0
 20
4347966.1558425
 10
704999.99999
 20
4347976.4651175
  0
LWPOLYLINE
  5
11A
330
1F
100
AcDbEntity
  8
Manhattan_UTM14_Clip
100
AcDbPolyline
 90
        3
 70
     1
 43
0.0
 10
704999.99999
 20
4330780.95012
 10
704999.99999
 20
4330999.999995
 10
705511.11638
 20
4330999.999995
  0
LWPOLYLINE
  5
11B
330
1F
100
AcDbEntity
  8
Manhattan_UTM14_Clip
100
AcDbPolyline
 90
        5
 70
     1
 43
0.0
 10
706000.0000025
 20
4331209.5215475
 10
705511.11638
 20
4330999.999995
 10
704999.99999
 20
4330999.999995
 10
704999.99999
 20
4332000.0000075
 10
706000.0000025
 20
4332000.0000075
  0
LWPOLYLINE
  5
11C
330
1F
100
AcDbEntity
  8
Manhattan_UTM14_Clip
100
AcDbPolyline
 90
        4
 70
     1
 43
0.0
 10
706000.0000025
 20
4332000.0000075
 10
704999.99999
 20
4332000.0000075
 10
704999.99999
 20
4332999.9999975
 10
706000.0000025
 20
4332999.9999975
  0
LWPOLYLINE
  5
11D
330
1F
100
AcDbEntity
  8
Manhattan_UTM14_Clip
100
AcDbPolyline
 90
        4
 70
     1
 43
0.0
 10
706000.0000025
 20
4332999.9999975
 10
704999.99999
 20
4332999.9999975
 10
704999.99999
 20
4334000.00001
 10
706000.0000025
 20
4334000.00001
  0
LWPOLYLINE
  5
11E
330
1F
100
AcDbEntity
  8
Manhattan_UTM14_Clip
100
AcDbPolyline
 90
        4
 70
     1
 43
0.0
 10
706000.0000025
 20
4334000.00001
 10
704999.99999
 20
4334000.00001
 10
704999.99999
 20
4335000.0
 10
706000.0000025
 20
4335000.0
  0
LWPOLYLINE
  5
11F
330
1F
100
AcDbEntity
  8
Manhattan_UTM14_Clip
100
AcDbPolyline
 90
        4
 70
     1
 43
0.0
 10
706000.0000025
 20
4335000.0
 10
704999.99999
 20
4335000.0
 10
704999.99999
 20
4335999.99999
 10
706000.0000025
 20
4335999.99999
  0
LWPOLYLINE
  5
120
330
1F
100
AcDbEntity
  8
Manhattan_UTM14_Clip
100
AcDbPolyline
 90
        4
 70
     1
 43
0.0
 10
706000.0000025
 20
4335999.99999
 10
704999.99999
 20
4335999.99999
 10
704999.99999
 20
4337000.0000025
 10
706000.0000025
 20
4337000.0000025
  0
LWPOLYLINE
  5
121
330
1F
100
AcDbEntity
  8
Manhattan_UTM14_Clip
100
AcDbPolyline
 90
        4
 70
     1
 43
0.0
 10
706000.0000025
 20
4337000.0000025
 10
704999.99999
 20
4337000.0000025
 10
704999.99999
 20
4337999.9999925
 10
706000.0000025
 20
4337999.9999925
  0
LWPOLYLINE
  5
122
330
1F
100
AcDbEntity
  8
Manhattan_UTM14_Clip
100
AcDbPolyline
 90
        4
 70
     1
 43
0.0
 10
706000.0000025
 20
4337999.9999925
 10
704999.99999
 20
4337999.9999925
 10
704999.99999
 20
4339000.000005
 10
706000.0000025
 20
4339000.000005
  0
LWPOLYLINE
  5
123
330
1F
100
AcDbEntity
  8
Manhattan_UTM14_Clip
100
AcDbPolyline
 90
        4
 70
     1
 43
0.0
 10
706000.0000025
 20
4339000.000005
 10
704999.99999
 20
4339000.000005
 10
704999.99999
 20
4339999.999995
 10
706000.0000025
 20
4339999.999995
  0
LWPOLYLINE
  5
124
330
1F
100
AcDbEntity
  8
Manhattan_UTM14_Clip
100
AcDbPolyline
 90
        4
 70
     1
 43
0.0
 10
706000.0000025
 20
4339999.999995
 10
704999.99999
 20
4339999.999995
 10
704999.99999
 20
4341000.0000075
 10
706000.0000025
 20
4341000.0000075
  0
LWPOLYLINE
  5
125
330
1F
100
AcDbEntity
  8
Manhattan_UTM14_Clip
100
AcDbPolyline
 90
        4
 70
     1
 43
0.0
 10
706000.0000025
 20
4341000.0000075
 10
704999.99999
 20
4341000.0000075
 10
704999.99999
 20
4341999.9999975
 10
706000.0000025
 20
4341999.9999975
  0
LWPOLYLINE
  5
126
330
1F
100
AcDbEntity
  8
Manhattan_UTM14_Clip
100
AcDbPolyline
 90
        4
 70
     1
 43
0.0
 10
706000.0000025
 20
4341999.9999975
 10
704999.99999
 20
4341999.9999975
 10
704999.99999
 20
4343000.00001
 10
706000.0000025
 20
4343000.00001
  0
LWPOLYLINE
  5
127
330
1F
100
AcDbEntity
  8
Manhattan_UTM14_Clip
100
AcDbPolyline
 90
        4
 70
     1
 43
0.0
 10
706000.0000025
 20
4343000.00001
 10
704999.99999
 20
4343000.00001
 10
704999.99999
 20
4344000.0
 10
706000.0000025
 20
4344000.0
  0
LWPOLYLINE
  5
128
330
1F
100
AcDbEntity
  8
Manhattan_UTM14_Clip
100
AcDbPolyline
 90
        4
 70
     1
 43
0.0
 10
706000.0000025
 20
4344000.0
 10
704999.99999
 20
4344000.0
 10
704999.99999
 20
4344999.99999
 10
706000.0000025
 20
4344999.99999
  0
LWPOLYLINE
  5
129
330
1F
100
AcDbEntity
  8
Manhattan_UTM14_Clip
100
AcDbPolyline
 90
        4
 70
     1
 43
0.0
 10
706000.0000025
 20
4344999.99999
 10
704999.99999
 20
4344999.99999
 10
704999.99999
 20
4346000.0000025
 10
706000.0000025
 20
4346000.0000025
  0
LWPOLYLINE
  5
12A
330
1F
100
AcDbEntity
  8
Manhattan_UTM14_Clip
100
AcDbPolyline
 90
        4
 70
     1
 43
0.0
 10
706000.0000025
 20
4346000.0000025
 10
704999.99999
 20
4346000.0000025
 10
704999.99999
 20
4346999.9999925
 10
706000.0000025
 20
4346999.9999925
  0
LWPOLYLINE
  5
12B
330
1F
100
AcDbEntity
  8
Manhattan_UTM14_Clip
100
AcDbPolyline
 90
        4
 70
     1
 43
0.0
 10
706000.0000025
 20
4346999.9999925
 10
704999.99999
 20
4346999.9999925
 10
704999.99999
 20
4347976.4651175
 10
706000.0000025
 20
4347986.7743925
  0
LWPOLYLINE
  5
12C
330
1F
100
AcDbEntity
  8
Manhattan_UTM14_Clip
100
AcDbPolyline
 90
        4
 70
     1
 43
0.0
 10
706999.9999924999
 20
4326869.7676725
 10
706142.0703575
 20
4326880.1041725
 10
706138.59512
 20
4326999.99999
 10
706999.9999924999
 20
4326999.99999
  0
LWPOLYLINE
  5
12D
330
1F
100
AcDbEntity
  8
Manhattan_UTM14_Clip
100
AcDbPolyline
 90
        4
 70
     1
 43
0.0
 10
706999.9999924999
 20
4326999.99999
 10
706138.59512
 20
4326999.99999
 10
706109.60963
 20
4328000.0000025
 10
706999.9999924999
 20
4328000.0000025
  0
LWPOLYLINE
  5
12E
330
1F
100
AcDbEntity
  8
Manhattan_UTM14_Clip
100
AcDbPolyline
 90
        4
 70
     1
 43
0.0
 10
706999.9999924999
 20
4328000.0000025
 10
706109.60963
 20
4328000.0000025
 10
706080.62414
 20
4328999.9999925
 10
706999.9999924999
 20
4328999.9999925
  0
LWPOLYLINE
  5
12F
330
1F
100
AcDbEntity
  8
Manhattan_UTM14_Clip
100
AcDbPolyline
 90
        4
 70
     1
 43
0.0
 10
706999.9999924999
 20
4328999.9999925
 10
706080.62414
 20
4328999.9999925
 10
706051.6386275
 20
4330000.000005
 10
706999.9999924999
 20
4330000.000005
  0
LWPOLYLINE
  5
130
330
1F
100
AcDbEntity
  8
Manhattan_UTM14_Clip
100
AcDbPolyline
 90
        4
 70
     1
 43
0.0
 10
706999.9999924999
 20
4330000.000005
 10
706051.6386275
 20
4330000.000005
 10
706022.6531375001
 20
4330999.999995
 10
706999.9999924999
 20
4330999.999995
  0
LWPOLYLINE
  5
131
330
1F
100
AcDbEntity
  8
Manhattan_UTM14_Clip
100
AcDbPolyline
 90
        6
 70
     1
 43
0.0
 10
706999.9999924999
 20
4330999.999995
 10
706022.6531375001
 20
4330999.999995
 10
706016.376605
 20
4331216.540085
 10
706000.0000025
 20
4331209.5215475
 10
706000.0000025
 20
4332000.0000075
 10
706999.9999924999
 20
4332000.0000075
  0
LWPOLYLINE
  5
132
330
1F
100
AcDbEntity
  8
Manhattan_UTM14_Clip
100
AcDbPolyline
 90
        4
 70
     1
 43
0.0
 10
706999.9999924999
 20
4332000.0000075
 10
706000.0000025
 20
4332000.0000075
 10
706000.0000025
 20
4332999.9999975
 10
706999.9999924999
 20
4332999.9999975
  0
LWPOLYLINE
  5
133
330
1F
100
AcDbEntity
  8
Manhattan_UTM14_Clip
100
AcDbPolyline
 90
        4
 70
     1
 43
0.0
 10
706999.9999924999
 20
4332999.9999975
 10
706000.0000025
 20
4332999.9999975
 10
706000.0000025
 20
4334000.00001
 10
706999.9999924999
 20
4334000.00001
  0
LWPOLYLINE
  5
134
330
1F
100
AcDbEntity
  8
Manhattan_UTM14_Clip
100
AcDbPolyline
 90
        4
 70
     1
 43
0.0
 10
706999.9999924999
 20
4334000.00001
 10
706000.0000025
 20
4334000.00001
 10
706000.0000025
 20
4335000.0
 10
706999.9999924999
 20
4335000.0
  0
LWPOLYLINE
  5
135
330
1F
100
AcDbEntity
  8
Manhattan_UTM14_Clip
100
AcDbPolyline
 90
        4
 70
     1
 43
0.0
 10
706999.9999924999
 20
4335000.0
 10
706000.0000025
 20
4335000.0
 10
706000.0000025
 20
4335999.99999
 10
706999.9999924999
 20
4335999.99999
  0
LWPOLYLINE
  5
136
330
1F
100
AcDbEntity
  8
Manhattan_UTM14_Clip
100
AcDbPolyline
 90
        4
 70
     1
 43
0.0
 10
706999.9999924999
 20
4335999.99999
 10
706000.0000025
 20
4335999.99999
 10
706000.0000025
 20
4337000.0000025
 10
706999.9999924999
 20
4337000.0000025
  0
LWPOLYLINE
  5
137
330
1F
100
AcDbEntity
  8
Manhattan_UTM14_Clip
100
AcDbPolyline
 90
        4
 70
     1
 43
0.0
 10
706999.9999924999
 20
4337000.0000025
 10
706000.0000025
 20
4337000.0000025
 10
706000.0000025
 20
4337999.9999925
 10
706999.9999924999
 20
4337999.9999925
  0
LWPOLYLINE
  5
138
330
1F
100
AcDbEntity
  8
Manhattan_UTM14_Clip
100
AcDbPolyline
 90
        4
 70
     1
 43
0.0
 10
706999.9999924999
 20
4337999.9999925
 10
706000.0000025
 20
4337999.9999925
 10
706000.0000025
 20
4339000.000005
 10
706999.9999924999
 20
4339000.000005
  0
LWPOLYLINE
  5
139
330
1F
100
AcDbEntity
  8
Manhattan_UTM14_Clip
100
AcDbPolyline
 90
        4
 70
     1
 43
0.0
 10
706999.9999924999
 20
4339000.000005
 10
706000.0000025
 20
4339000.000005
 10
706000.0000025
 20
4339999.999995
 10
706999.9999924999
 20
4339999.999995
  0
LWPOLYLINE
  5
13A
330
1F
100
AcDbEntity
  8
Manhattan_UTM14_Clip
100
AcDbPolyline
 90
        4
 70
     1
 43
0.0
 10
706999.9999924999
 20
4339999.999995
 10
706000.0000025
 20
4339999.999995
 10
706000.0000025
 20
4341000.0000075
 10
706999.9999924999
 20
4341000.0000075
  0
LWPOLYLINE
  5
13B
330
1F
100
AcDbEntity
  8
Manhattan_UTM14_Clip
100
AcDbPolyline
 90
        4
 70
     1
 43
0.0
 10
706999.9999924999
 20
4341000.0000075
 10
706000.0000025
 20
4341000.0000075
 10
706000.0000025
 20
4341999.9999975
 10
706999.9999924999
 20
4341999.9999975
  0
LWPOLYLINE
  5
13C
330
1F
100
AcDbEntity
  8
Manhattan_UTM14_Clip
100
AcDbPolyline
 90
        4
 70
     1
 43
0.0
 10
706999.9999924999
 20
4341999.9999975
 10
706000.0000025
 20
4341999.9999975
 10
706000.0000025
 20
4343000.00001
 10
706999.9999924999
 20
4343000.00001
  0
LWPOLYLINE
  5
13D
330
1F
100
AcDbEntity
  8
Manhattan_UTM14_Clip
100
AcDbPolyline
 90
        4
 70
     1
 43
0.0
 10
706999.9999924999
 20
4343000.00001
 10
706000.0000025
 20
4343000.00001
 10
706000.0000025
 20
4344000.0
 10
706999.9999924999
 20
4344000.0
  0
LWPOLYLINE
  5
13E
330
1F
100
AcDbEntity
  8
Manhattan_UTM14_Clip
100
AcDbPolyline
 90
        4
 70
     1
 43
0.0
 10
706999.9999924999
 20
4344000.0
 10
706000.0000025
 20
4344000.0
 10
706000.0000025
 20
4344999.99999
 10
706999.9999924999
 20
4344999.99999
  0
LWPOLYLINE
  5
13F
330
1F
100
AcDbEntity
  8
Manhattan_UTM14_Clip
100
AcDbPolyline
 90
        4
 70
     1
 43
0.0
 10
706999.9999924999
 20
4344999.99999
 10
706000.0000025
 20
4344999.99999
 10
706000.0000025
 20
4346000.0000025
 10
706999.9999924999
 20
4346000.0000025
  0
LWPOLYLINE
  5
140
330
1F
100
AcDbEntity
  8
Manhattan_UTM14_Clip
100
AcDbPolyline
 90
        4
 70
     1
 43
0.0
 10
706999.9999924999
 20
4346000.0000025
 10
706000.0000025
 20
4346000.0000025
 10
706000.0000025
 20
4346999.9999925
 10
706999.9999924999
 20
4346999.9999925
  0
LWPOLYLINE
  5
141
330
1F
100
AcDbEntity
  8
Manhattan_UTM14_Clip
100
AcDbPolyline
 90
        5
 70
     1
 43
0.0
 10
706999.9999924999
 20
4347963.925845
 10
706999.9999924999
 20
4346999.9999925
 10
706000.0000025
 20
4346999.9999925
 10
706000.0000025
 20
4347986.7743925
 10
706959.08003
 20
4347996.661815
  0
LWPOLYLINE
  5
142
330
1F
100
AcDbEntity
  8
Manhattan_UTM14_Clip
100
AcDbPolyline
 90
        4
 70
     1
 43
0.0
 10
708000.000005
 20
4326857.719485
 10
706999.9999924999
 20
4326869.7676725
 10
706999.9999924999
 20
4326999.99999
 10
708000.000005
 20
4326999.99999
  0
LWPOLYLINE
  5
143
330
1F
100
AcDbEntity
  8
Manhattan_UTM14_Clip
100
AcDbPolyline
 90
        4
 70
     1
 43
0.0
 10
708000.000005
 20
4326999.99999
 10
706999.9999924999
 20
4326999.99999
 10
706999.9999924999
 20
4328000.0000025
 10
708000.000005
 20
4328000.0000025
  0
LWPOLYLINE
  5
144
330
1F
100
AcDbEntity
  8
Manhattan_UTM14_Clip
100
AcDbPolyline
 90
        4
 70
     1
 43
0.0
 10
708000.000005
 20
4328000.0000025
 10
706999.9999924999
 20
4328000.0000025
 10
706999.9999924999
 20
4328999.9999925
 10
708000.000005
 20
4328999.9999925
  0
LWPOLYLINE
  5
145
330
1F
100
AcDbEntity
  8
Manhattan_UTM14_Clip
100
AcDbPolyline
 90
        4
 70
     1
 43
0.0
 10
708000.000005
 20
4328999.9999925
 10
706999.9999924999
 20
4328999.9999925
 10
706999.9999924999
 20
4330000.000005
 10
708000.000005
 20
4330000.000005
  0
LWPOLYLINE
  5
146
330
1F
100
AcDbEntity
  8
Manhattan_UTM14_Clip
100
AcDbPolyline
 90
        4
 70
     1
 43
0.0
 10
708000.000005
 20
4330000.000005
 10
706999.9999924999
 20
4330000.000005
 10
706999.9999924999
 20
4330999.999995
 10
708000.000005
 20
4330999.999995
  0
LWPOLYLINE
  5
147
330
1F
100
AcDbEntity
  8
Manhattan_UTM14_Clip
100
AcDbPolyline
 90
        4
 70
     1
 43
0.0
 10
708000.000005
 20
4330999.999995
 10
706999.9999924999
 20
4330999.999995
 10
706999.9999924999
 20
4332000.0000075
 10
708000.000005
 20
4332000.0000075
  0
LWPOLYLINE
  5
148
330
1F
100
AcDbEntity
  8
Manhattan_UTM14_Clip
100
AcDbPolyline
 90
        4
 70
     1
 43
0.0
 10
708000.000005
 20
4332000.0000075
 10
706999.9999924999
 20
4332000.0000075
 10
706999.9999924999
 20
4332999.9999975
 10
708000.000005
 20
4332999.9999975
  0
LWPOLYLINE
  5
149
330
1F
100
AcDbEntity
  8
Manhattan_UTM14_Clip
100
AcDbPolyline
 90
        4
 70
     1
 43
0.0
 10
708000.000005
 20
4332999.9999975
 10
706999.9999924999
 20
4332999.9999975
 10
706999.9999924999
 20
4334000.00001
 10
708000.000005
 20
4334000.00001
  0
LWPOLYLINE
  5
14A
330
1F
100
AcDbEntity
  8
Manhattan_UTM14_Clip
100
AcDbPolyline
 90
        4
 70
     1
 43
0.0
 10
708000.000005
 20
4334000.00001
 10
706999.9999924999
 20
4334000.00001
 10
706999.9999924999
 20
4335000.0
 10
708000.000005
 20
4335000.0
  0
LWPOLYLINE
  5
14B
330
1F
100
AcDbEntity
  8
Manhattan_UTM14_Clip
100
AcDbPolyline
 90
        4
 70
     1
 43
0.0
 10
708000.000005
 20
4335000.0
 10
706999.9999924999
 20
4335000.0
 10
706999.9999924999
 20
4335999.99999
 10
708000.000005
 20
4335999.99999
  0
LWPOLYLINE
  5
14C
330
1F
100
AcDbEntity
  8
Manhattan_UTM14_Clip
100
AcDbPolyline
 90
        4
 70
     1
 43
0.0
 10
708000.000005
 20
4335999.99999
 10
706999.9999924999
 20
4335999.99999
 10
706999.9999924999
 20
4337000.0000025
 10
708000.000005
 20
4337000.0000025
  0
LWPOLYLINE
  5
14D
330
1F
100
AcDbEntity
  8
Manhattan_UTM14_Clip
100
AcDbPolyline
 90
        4
 70
     1
 43
0.0
 10
708000.000005
 20
4337000.0000025
 10
706999.9999924999
 20
4337000.0000025
 10
706999.9999924999
 20
4337999.9999925
 10
708000.000005
 20
4337999.9999925
  0
LWPOLYLINE
  5
14E
330
1F
100
AcDbEntity
  8
Manhattan_UTM14_Clip
100
AcDbPolyline
 90
        4
 70
     1
 43
0.0
 10
708000.000005
 20
4337999.9999925
 10
706999.9999924999
 20
4337999.9999925
 10
706999.9999924999
 20
4339000.000005
 10
708000.000005
 20
4339000.000005
  0
LWPOLYLINE
  5
14F
330
1F
100
AcDbEntity
  8
Manhattan_UTM14_Clip
100
AcDbPolyline
 90
        4
 70
     1
 43
0.0
 10
708000.000005
 20
4339000.000005
 10
706999.9999924999
 20
4339000.000005
 10
706999.9999924999
 20
4339999.999995
 10
708000.000005
 20
4339999.999995
  0
LWPOLYLINE
  5
150
330
1F
100
AcDbEntity
  8
Manhattan_UTM14_Clip
100
AcDbPolyline
 90
        4
 70
     1
 43
0.0
 10
708000.000005
 20
4339999.999995
 10
706999.9999924999
 20
4339999.999995
 10
706999.9999924999
 20
4341000.0000075
 10
708000.000005
 20
4341000.0000075
  0
LWPOLYLINE
  5
151
330
1F
100
AcDbEntity
  8
Manhattan_UTM14_Clip
100
AcDbPolyline
 90
        4
 70
     1
 43
0.0
 10
708000.000005
 20
4341000.0000075
 10
706999.9999924999
 20
4341000.0000075
 10
706999.9999924999
 20
4341999.9999975
 10
708000.000005
 20
4341999.9999975
  0
LWPOLYLINE
  5
152
330
1F
100
AcDbEntity
  8
Manhattan_UTM14_Clip
100
AcDbPolyline
 90
        4
 70
     1
 43
0.0
 10
708000.000005
 20
4341999.9999975
 10
706999.9999924999
 20
4341999.9999975
 10
706999.9999924999
 20
4343000.00001
 10
708000.000005
 20
4343000.00001
  0
LWPOLYLINE
  5
153
330
1F
100
AcDbEntity
  8
Manhattan_UTM14_Clip
100
AcDbPolyline
 90
        4
 70
     1
 43
0.0
 10
708000.000005
 20
4343000.00001
 10
706999.9999924999
 20
4343000.00001
 10
706999.9999924999
 20
4344000.0
 10
708000.000005
 20
4344000.0
  0
LWPOLYLINE
  5
154
330
1F
100
AcDbEntity
  8
Manhattan_UTM14_Clip
100
AcDbPolyline
 90
        4
 70
     1
 43
0.0
 10
708000.000005
 20
4344000.0
 10
706999.9999924999
 20
4344000.0
 10
706999.9999924999
 20
4344999.99999
 10
708000.000005
 20
4344999.99999
  0
LWPOLYLINE
  5
155
330
1F
100
AcDbEntity
  8
Manhattan_UTM14_Clip
100
AcDbPolyline
 90
        4
 70
     1
 43
0.0
 10
708000.000005
 20
4344999.99999
 10
706999.9999924999
 20
4344999.99999
 10
706999.9999924999
 20
4346000.0000025
 10
708000.000005
 20
4346000.0000025
  0
LWPOLYLINE
  5
156
330
1F
100
AcDbEntity
  8
Manhattan_UTM14_Clip
100
AcDbPolyline
 90
        4
 70
     1
 43
0.0
 10
708000.000005
 20
4346000.0000025
 10
706999.9999924999
 20
4346000.0000025
 10
706999.9999924999
 20
4346999.9999925
 10
708000.000005
 20
4346999.9999925
  0
LWPOLYLINE
  5
157
330
1F
100
AcDbEntity
  8
Manhattan_UTM14_Clip
100
AcDbPolyline
 90
        4
 70
     1
 43
0.0
 10
708000.000005
 20
4347163.9258125
 10
708000.000005
 20
4346999.9999925
 10
706999.9999924999
 20
4346999.9999925
 10
706999.9999924999
 20
4347963.925845
  0
LWPOLYLINE
  5
158
330
1F
100
AcDbEntity
  8
Manhattan_UTM14_Clip
100
AcDbPolyline
 90
        4
 70
     1
 43
0.0
 10
708999.999995
 20
4326845.6712975
 10
708000.000005
 20
4326857.719485
 10
708000.000005
 20
4326999.99999
 10
708999.999995
 20
4326999.99999
  0
LWPOLYLINE
  5
159
330
1F
100
AcDbEntity
  8
Manhattan_UTM14_Clip
100
AcDbPolyline
 90
        4
 70
     1
 43
0.0
 10
708999.999995
 20
4326999.99999
 10
708000.000005
 20
4326999.99999
 10
708000.000005
 20
4328000.0000025
 10
708999.999995
 20
4328000.0000025
  0
LWPOLYLINE
  5
15A
330
1F
100
AcDbEntity
  8
Manhattan_UTM14_Clip
100
AcDbPolyline
 90
        4
 70
     1
 43
0.0
 10
708999.999995
 20
4328000.0000025
 10
708000.000005
 20
4328000.0000025
 10
708000.000005
 20
4328999.9999925
 10
708999.999995
 20
4328999.9999925
  0
LWPOLYLINE
  5
15B
330
1F
100
AcDbEntity
  8
Manhattan_UTM14_Clip
100
AcDbPolyline
 90
        4
 70
     1
 43
0.0
 10
708999.999995
 20
4328999.9999925
 10
708000.000005
 20
4328999.9999925
 10
708000.000005
 20
4330000.000005
 10
708999.999995
 20
4330000.000005
  0
LWPOLYLINE
  5
15C
330
1F
100
AcDbEntity
  8
Manhattan_UTM14_Clip
100
AcDbPolyline
 90
        4
 70
     1
 43
0.0
 10
708999.999995
 20
4330000.000005
 10
708000.000005
 20
4330000.000005
 10
708000.000005
 20
4330999.999995
 10
708999.999995
 20
4330999.999995
  0
LWPOLYLINE
  5
15D
330
1F
100
AcDbEntity
  8
Manhattan_UTM14_Clip
100
AcDbPolyline
 90
        4
 70
     1
 43
0.0
 10
708999.999995
 20
4330999.999995
 10
708000.000005
 20
4330999.999995
 10
708000.000005
 20
4332000.0000075
 10
708999.999995
 20
4332000.0000075
  0
LWPOLYLINE
  5
15E
330
1F
100
AcDbEntity
  8
Manhattan_UTM14_Clip
100
AcDbPolyline
 90
        4
 70
     1
 43
0.0
 10
708999.999995
 20
4332000.0000075
 10
708000.000005
 20
4332000.0000075
 10
708000.000005
 20
4332999.9999975
 10
708999.999995
 20
4332999.9999975
  0
LWPOLYLINE
  5
15F
330
1F
100
AcDbEntity
  8
Manhattan_UTM14_Clip
100
AcDbPolyline
 90
        4
 70
     1
 43
0.0
 10
708999.999995
 20
4332999.9999975
 10
708000.000005
 20
4332999.9999975
 10
708000.000005
 20
4334000.00001
 10
708999.999995
 20
4334000.00001
  0
LWPOLYLINE
  5
160
330
1F
100
AcDbEntity
  8
Manhattan_UTM14_Clip
100
AcDbPolyline
 90
        4
 70
     1
 43
0.0
 10
708999.999995
 20
4334000.00001
 10
708000.000005
 20
4334000.00001
 10
708000.000005
 20
4335000.0
 10
708999.999995
 20
4335000.0
  0
LWPOLYLINE
  5
161
330
1F
100
AcDbEntity
  8
Manhattan_UTM14_Clip
100
AcDbPolyline
 90
        4
 70
     1
 43
0.0
 10
708999.999995
 20
4335000.0
 10
708000.000005
 20
4335000.0
 10
708000.000005
 20
4335999.99999
 10
708999.999995
 20
4335999.99999
  0
LWPOLYLINE
  5
162
330
1F
100
AcDbEntity
  8
Manhattan_UTM14_Clip
100
AcDbPolyline
 90
        4
 70
     1
 43
0.0
 10
708999.999995
 20
4335999.99999
 10
708000.000005
 20
4335999.99999
 10
708000.000005
 20
4337000.0000025
 10
708999.999995
 20
4337000.0000025
  0
LWPOLYLINE
  5
163
330
1F
100
AcDbEntity
  8
Manhattan_UTM14_Clip
100
AcDbPolyline
 90
        4
 70
     1
 43
0.0
 10
708999.999995
 20
4337000.0000025
 10
708000.000005
 20
4337000.0000025
 10
708000.000005
 20
4337999.9999925
 10
708999.999995
 20
4337999.9999925
  0
LWPOLYLINE
  5
164
330
1F
100
AcDbEntity
  8
Manhattan_UTM14_Clip
100
AcDbPolyline
 90
        4
 70
     1
 43
0.0
 10
708999.999995
 20
4337999.9999925
 10
708000.000005
 20
4337999.9999925
 10
708000.000005
 20
4339000.000005
 10
708999.999995
 20
4339000.000005
  0
LWPOLYLINE
  5
165
330
1F
100
AcDbEntity
  8
Manhattan_UTM14_Clip
100
AcDbPolyline
 90
        4
 70
     1
 43
0.0
 10
708999.999995
 20
4339000.000005
 10
708000.000005
 20
4339000.000005
 10
708000.000005
 20
4339999.999995
 10
708999.999995
 20
4339999.999995
  0
LWPOLYLINE
  5
166
330
1F
100
AcDbEntity
  8
Manhattan_UTM14_Clip
100
AcDbPolyline
 90
        4
 70
     1
 43
0.0
 10
708999.999995
 20
4339999.999995
 10
708000.000005
 20
4339999.999995
 10
708000.000005
 20
4341000.0000075
 10
708999.999995
 20
4341000.0000075
  0
LWPOLYLINE
  5
167
330
1F
100
AcDbEntity
  8
Manhattan_UTM14_Clip
100
AcDbPolyline
 90
        4
 70
     1
 43
0.0
 10
708999.999995
 20
4341000.0000075
 10
708000.000005
 20
4341000.0000075
 10
708000.000005
 20
4341999.9999975
 10
708999.999995
 20
4341999.9999975
  0
LWPOLYLINE
  5
168
330
1F
100
AcDbEntity
  8
Manhattan_UTM14_Clip
100
AcDbPolyline
 90
        4
 70
     1
 43
0.0
 10
708999.999995
 20
4341999.9999975
 10
708000.000005
 20
4341999.9999975
 10
708000.000005
 20
4343000.00001
 10
708999.999995
 20
4343000.00001
  0
LWPOLYLINE
  5
169
330
1F
100
AcDbEntity
  8
Manhattan_UTM14_Clip
100
AcDbPolyline
 90
        4
 70
     1
 43
0.0
 10
708999.999995
 20
4343000.00001
 10
708000.000005
 20
4343000.00001
 10
708000.000005
 20
4344000.0
 10
708999.999995
 20
4344000.0
  0
LWPOLYLINE
  5
16A
330
1F
100
AcDbEntity
  8
Manhattan_UTM14_Clip
100
AcDbPolyline
 90
        4
 70
     1
 43
0.0
 10
708999.999995
 20
4344000.0
 10
708000.000005
 20
4344000.0
 10
708000.000005
 20
4344999.99999
 10
708999.999995
 20
4344999.99999
  0
LWPOLYLINE
  5
16B
330
1F
100
AcDbEntity
  8
Manhattan_UTM14_Clip
100
AcDbPolyline
 90
        6
 70
     1
 43
0.0
 10
708999.999995
 20
4345994.4893925
 10
708999.999995
 20
4344999.99999
 10
708000.000005
 20
4344999.99999
 10
708000.000005
 20
4346000.0000025
 10
708799.02473
 20
4346000.0000025
 10
708844.4869925
 20
4345922.7141675
  0
LWPOLYLINE
  5
16C
330
1F
100
AcDbEntity
  8
Manhattan_UTM14_Clip
100
AcDbPolyline
 90
        5
 70
     1
 43
0.0
 10
708799.02473
 20
4346000.0000025
 10
708000.000005
 20
4346000.0000025
 10
708000.000005
 20
4346999.9999925
 10
708204.90728
 20
4346999.9999925
 10
708216.018005
 20
4346991.1114125
  0
LWPOLYLINE
  5
16D
330
1F
100
AcDbEntity
  8
Manhattan_UTM14_Clip
100
AcDbPolyline
 90
        3
 70
     1
 43
0.0
 10
708204.90728
 20
4346999.9999925
 10
708000.000005
 20
4346999.9999925
 10
708000.000005
 20
4347163.9258125
  0
LWPOLYLINE
  5
16E
330
1F
100
AcDbEntity
  8
Manhattan_UTM14_Clip
100
AcDbPolyline
 90
        4
 70
     1
 43
0.0
 10
710000.0000074999
 20
4326833.6230875
 10
708999.999995
 20
4326845.6712975
 10
708999.999995
 20
4326999.99999
 10
710000.0000074999
 20
4326999.99999
  0
LWPOLYLINE
  5
16F
330
1F
100
AcDbEntity
  8
Manhattan_UTM14_Clip
100
AcDbPolyline
 90
        4
 70
     1
 43
0.0
 10
710000.0000074999
 20
4326999.99999
 10
708999.999995
 20
4326999.99999
 10
708999.999995
 20
4328000.0000025
 10
710000.0000074999
 20
4328000.0000025
  0
LWPOLYLINE
  5
170
330
1F
100
AcDbEntity
  8
Manhattan_UTM14_Clip
100
AcDbPolyline
 90
        4
 70
     1
 43
0.0
 10
710000.0000074999
 20
4328000.0000025
 10
708999.999995
 20
4328000.0000025
 10
708999.999995
 20
4328999.9999925
 10
710000.0000074999
 20
4328999.9999925
  0
LWPOLYLINE
  5
171
330
1F
100
AcDbEntity
  8
Manhattan_UTM14_Clip
100
AcDbPolyline
 90
        4
 70
     1
 43
0.0
 10
710000.0000074999
 20
4328999.9999925
 10
708999.999995
 20
4328999.9999925
 10
708999.999995
 20
4330000.000005
 10
710000.0000074999
 20
4330000.000005
  0
LWPOLYLINE
  5
172
330
1F
100
AcDbEntity
  8
Manhattan_UTM14_Clip
100
AcDbPolyline
 90
        4
 70
     1
 43
0.0
 10
710000.0000074999
 20
4330000.000005
 10
708999.999995
 20
4330000.000005
 10
708999.999995
 20
4330999.999995
 10
710000.0000074999
 20
4330999.999995
  0
LWPOLYLINE
  5
173
330
1F
100
AcDbEntity
  8
Manhattan_UTM14_Clip
100
AcDbPolyline
 90
        4
 70
     1
 43
0.0
 10
710000.0000074999
 20
4330999.999995
 10
708999.999995
 20
4330999.999995
 10
708999.999995
 20
4332000.0000075
 10
710000.0000074999
 20
4332000.0000075
  0
LWPOLYLINE
  5
174
330
1F
100
AcDbEntity
  8
Manhattan_UTM14_Clip
100
AcDbPolyline
 90
        4
 70
     1
 43
0.0
 10
710000.0000074999
 20
4332000.0000075
 10
708999.999995
 20
4332000.0000075
 10
708999.999995
 20
4332999.9999975
 10
710000.0000074999
 20
4332999.9999975
  0
LWPOLYLINE
  5
175
330
1F
100
AcDbEntity
  8
Manhattan_UTM14_Clip
100
AcDbPolyline
 90
        4
 70
     1
 43
0.0
 10
710000.0000074999
 20
4332999.9999975
 10
708999.999995
 20
4332999.9999975
 10
708999.999995
 20
4334000.00001
 10
710000.0000074999
 20
4334000.00001
  0
LWPOLYLINE
  5
176
330
1F
100
AcDbEntity
  8
Manhattan_UTM14_Clip
100
AcDbPolyline
 90
        4
 70
     1
 43
0.0
 10
710000.0000074999
 20
4334000.00001
 10
708999.999995
 20
4334000.00001
 10
708999.999995
 20
4335000.0
 10
710000.0000074999
 20
4335000.0
  0
LWPOLYLINE
  5
177
330
1F
100
AcDbEntity
  8
Manhattan_UTM14_Clip
100
AcDbPolyline
 90
        4
 70
     1
 43
0.0
 10
710000.0000074999
 20
4335000.0
 10
708999.999995
 20
4335000.0
 10
708999.999995
 20
4335999.99999
 10
710000.0000074999
 20
4335999.99999
  0
LWPOLYLINE
  5
178
330
1F
100
AcDbEntity
  8
Manhattan_UTM14_Clip
100
AcDbPolyline
 90
        4
 70
     1
 43
0.0
 10
710000.0000074999
 20
4335999.99999
 10
708999.999995
 20
4335999.99999
 10
708999.999995
 20
4337000.0000025
 10
710000.0000074999
 20
4337000.0000025
  0
LWPOLYLINE
  5
179
330
1F
100
AcDbEntity
  8
Manhattan_UTM14_Clip
100
AcDbPolyline
 90
        4
 70
     1
 43
0.0
 10
710000.0000074999
 20
4337000.0000025
 10
708999.999995
 20
4337000.0000025
 10
708999.999995
 20
4337999.9999925
 10
710000.0000074999
 20
4337999.9999925
  0
LWPOLYLINE
  5
17A
330
1F
100
AcDbEntity
  8
Manhattan_UTM14_Clip
100
AcDbPolyline
 90
        4
 70
     1
 43
0.0
 10
710000.0000074999
 20
4337999.9999925
 10
708999.999995
 20
4337999.9999925
 10
708999.999995
 20
4339000.000005
 10
710000.0000074999
 20
4339000.000005
  0
LWPOLYLINE
  5
17B
330
1F
100
AcDbEntity
  8
Manhattan_UTM14_Clip
100
AcDbPolyline
 90
        4
 70
     1
 43
0.0
 10
710000.0000074999
 20
4339000.000005
 10
708999.999995
 20
4339000.000005
 10
708999.999995
 20
4339999.999995
 10
710000.0000074999
 20
4339999.999995
  0
LWPOLYLINE
  5
17C
330
1F
100
AcDbEntity
  8
Manhattan_UTM14_Clip
100
AcDbPolyline
 90
        4
 70
     1
 43
0.0
 10
710000.0000074999
 20
4339999.999995
 10
708999.999995
 20
4339999.999995
 10
708999.999995
 20
4341000.0000075
 10
710000.0000074999
 20
4341000.0000075
  0
LWPOLYLINE
  5
17D
330
1F
100
AcDbEntity
  8
Manhattan_UTM14_Clip
100
AcDbPolyline
 90
        4
 70
     1
 43
0.0
 10
710000.0000074999
 20
4341000.0000075
 10
708999.999995
 20
4341000.0000075
 10
708999.999995
 20
4341999.9999975
 10
710000.0000074999
 20
4341999.9999975
  0
LWPOLYLINE
  5
17E
330
1F
100
AcDbEntity
  8
Manhattan_UTM14_Clip
100
AcDbPolyline
 90
        4
 70
     1
 43
0.0
 10
710000.0000074999
 20
4341999.9999975
 10
708999.999995
 20
4341999.9999975
 10
708999.999995
 20
4343000.00001
 10
710000.0000074999
 20
4343000.00001
  0
LWPOLYLINE
  5
17F
330
1F
100
AcDbEntity
  8
Manhattan_UTM14_Clip
100
AcDbPolyline
 90
        4
 70
     1
 43
0.0
 10
710000.0000074999
 20
4343000.00001
 10
708999.999995
 20
4343000.00001
 10
708999.999995
 20
4344000.0
 10
710000.0000074999
 20
4344000.0
  0
LWPOLYLINE
  5
180
330
1F
100
AcDbEntity
  8
Manhattan_UTM14_Clip
100
AcDbPolyline
 90
        4
 70
     1
 43
0.0
 10
710000.0000074999
 20
4344000.0
 10
708999.999995
 20
4344000.0
 10
708999.999995
 20
4344999.99999
 10
710000.0000074999
 20
4344999.99999
  0
LWPOLYLINE
  5
181
330
1F
100
AcDbEntity
  8
Manhattan_UTM14_Clip
100
AcDbPolyline
 90
        5
 70
     1
 43
0.0
 10
710000.0000074999
 20
4344999.99999
 10
708999.999995
 20
4344999.99999
 10
708999.999995
 20
4345994.4893925
 10
709011.9396425
 20
4346000.0000025
 10
710000.0000074999
 20
4346000.0000025
  0
LWPOLYLINE
  5
182
330
1F
100
AcDbEntity
  8
Manhattan_UTM14_Clip
100
AcDbPolyline
 90
        3
 70
     1
 43
0.0
 10
710000.0000074999
 20
4346000.0000025
 10
709011.9396425
 20
4346000.0000025
 10
710000.0000074999
 20
4346456.027865
  0
LWPOLYLINE
  5
183
330
1F
100
AcDbEntity
  8
Manhattan_UTM14_Clip
100
AcDbPolyline
 90
        4
 70
     1
 43
0.0
 10
710999.9999975
 20
4326821.5749
 10
710000.0000074999
 20
4326833.6230875
 10
710000.0000074999
 20
4326999.99999
 10
710999.9999975
 20
4326999.99999
  0
LWPOLYLINE
  5
184
330
1F
100
AcDbEntity
  8
Manhattan_UTM14_Clip
100
AcDbPolyline
 90
        4
 70
     1
 43
0.0
 10
710999.9999975
 20
4326999.99999
 10
710000.0000074999
 20
4326999.99999
 10
710000.0000074999
 20
4328000.0000025
 10
710999.9999975
 20
4328000.0000025
  0
LWPOLYLINE
  5
185
330
1F
100
AcDbEntity
  8
Manhattan_UTM14_Clip
100
AcDbPolyline
 90
        4
 70
     1
 43
0.0
 10
710999.9999975
 20
4328000.0000025
 10
710000.0000074999
 20
4328000.0000025
 10
710000.0000074999
 20
4328999.9999925
 10
710999.9999975
 20
4328999.9999925
  0
LWPOLYLINE
  5
186
330
1F
100
AcDbEntity
  8
Manhattan_UTM14_Clip
100
AcDbPolyline
 90
        4
 70
     1
 43
0.0
 10
710999.9999975
 20
4328999.9999925
 10
710000.0000074999
 20
4328999.9999925
 10
710000.0000074999
 20
4330000.000005
 10
710999.9999975
 20
4330000.000005
  0
LWPOLYLINE
  5
187
330
1F
100
AcDbEntity
  8
Manhattan_UTM14_Clip
100
AcDbPolyline
 90
        4
 70
     1
 43
0.0
 10
710999.9999975
 20
4330000.000005
 10
710000.0000074999
 20
4330000.000005
 10
710000.0000074999
 20
4330999.999995
 10
710999.9999975
 20
4330999.999995
  0
LWPOLYLINE
  5
188
330
1F
100
AcDbEntity
  8
Manhattan_UTM14_Clip
100
AcDbPolyline
 90
        4
 70
     1
 43
0.0
 10
710999.9999975
 20
4330999.999995
 10
710000.0000074999
 20
4330999.999995
 10
710000.0000074999
 20
4332000.0000075
 10
710999.9999975
 20
4332000.0000075
  0
LWPOLYLINE
  5
189
330
1F
100
AcDbEntity
  8
Manhattan_UTM14_Clip
100
AcDbPolyline
 90
        4
 70
     1
 43
0.0
 10
710999.9999975
 20
4332000.0000075
 10
710000.0000074999
 20
4332000.0000075
 10
710000.0000074999
 20
4332999.9999975
 10
710999.9999975
 20
4332999.9999975
  0
LWPOLYLINE
  5
18A
330
1F
100
AcDbEntity
  8
Manhattan_UTM14_Clip
100
AcDbPolyline
 90
        4
 70
     1
 43
0.0
 10
710999.9999975
 20
4332999.9999975
 10
710000.0000074999
 20
4332999.9999975
 10
710000.0000074999
 20
4334000.00001
 10
710999.9999975
 20
4334000.00001
  0
LWPOLYLINE
  5
18B
330
1F
100
AcDbEntity
  8
Manhattan_UTM14_Clip
100
AcDbPolyline
 90
        4
 70
     1
 43
0.0
 10
710999.9999975
 20
4334000.00001
 10
710000.0000074999
 20
4334000.00001
 10
710000.0000074999
 20
4335000.0
 10
710999.9999975
 20
4335000.0
  0
LWPOLYLINE
  5
18C
330
1F
100
AcDbEntity
  8
Manhattan_UTM14_Clip
100
AcDbPolyline
 90
        4
 70
     1
 43
0.0
 10
710999.9999975
 20
4335000.0
 10
710000.0000074999
 20
4335000.0
 10
710000.0000074999
 20
4335999.99999
 10
710999.9999975
 20
4335999.99999
  0
LWPOLYLINE
  5
18D
330
1F
100
AcDbEntity
  8
Manhattan_UTM14_Clip
100
AcDbPolyline
 90
        4
 70
     1
 43
0.0
 10
710999.9999975
 20
4335999.99999
 10
710000.0000074999
 20
4335999.99999
 10
710000.0000074999
 20
4337000.0000025
 10
710999.9999975
 20
4337000.0000025
  0
LWPOLYLINE
  5
18E
330
1F
100
AcDbEntity
  8
Manhattan_UTM14_Clip
100
AcDbPolyline
 90
        4
 70
     1
 43
0.0
 10
710999.9999975
 20
4337000.0000025
 10
710000.0000074999
 20
4337000.0000025
 10
710000.0000074999
 20
4337999.9999925
 10
710999.9999975
 20
4337999.9999925
  0
LWPOLYLINE
  5
18F
330
1F
100
AcDbEntity
  8
Manhattan_UTM14_Clip
100
AcDbPolyline
 90
        4
 70
     1
 43
0.0
 10
710999.9999975
 20
4337999.9999925
 10
710000.0000074999
 20
4337999.9999925
 10
710000.0000074999
 20
4339000.000005
 10
710999.9999975
 20
4339000.000005
  0
LWPOLYLINE
  5
190
330
1F
100
AcDbEntity
  8
Manhattan_UTM14_Clip
100
AcDbPolyline
 90
        4
 70
     1
 43
0.0
 10
710999.9999975
 20
4339000.000005
 10
710000.0000074999
 20
4339000.000005
 10
710000.0000074999
 20
4339999.999995
 10
710999.9999975
 20
4339999.999995
  0
LWPOLYLINE
  5
191
330
1F
100
AcDbEntity
  8
Manhattan_UTM14_Clip
100
AcDbPolyline
 90
        4
 70
     1
 43
0.0
 10
710999.9999975
 20
4339999.999995
 10
710000.0000074999
 20
4339999.999995
 10
710000.0000074999
 20
4341000.0000075
 10
710999.9999975
 20
4341000.0000075
  0
LWPOLYLINE
  5
192
330
1F
100
AcDbEntity
  8
Manhattan_UTM14_Clip
100
AcDbPolyline
 90
        4
 70
     1
 43
0.0
 10
710999.9999975
 20
4341000.0000075
 10
710000.0000074999
 20
4341000.0000075
 10
710000.0000074999
 20
4341999.9999975
 10
710999.9999975
 20
4341999.9999975
  0
LWPOLYLINE
  5
193
330
1F
100
AcDbEntity
  8
Manhattan_UTM14_Clip
100
AcDbPolyline
 90
        4
 70
     1
 43
0.0
 10
710999.9999975
 20
4341999.9999975
 10
710000.0000074999
 20
4341999.9999975
 10
710000.0000074999
 20
4343000.00001
 10
710999.9999975
 20
4343000.00001
  0
LWPOLYLINE
  5
194
330
1F
100
AcDbEntity
  8
Manhattan_UTM14_Clip
100
AcDbPolyline
 90
        4
 70
     1
 43
0.0
 10
710999.9999975
 20
4343000.00001
 10
710000.0000074999
 20
4343000.00001
 10
710000.0000074999
 20
4344000.0
 10
710999.9999975
 20
4344000.0
  0
LWPOLYLINE
  5
195
330
1F
100
AcDbEntity
  8
Manhattan_UTM14_Clip
100
AcDbPolyline
 90
        4
 70
     1
 43
0.0
 10
710999.9999975
 20
4344000.0
 10
710000.0000074999
 20
4344000.0
 10
710000.0000074999
 20
4344999.99999
 10
710999.9999975
 20
4344999.99999
  0
LWPOLYLINE
  5
196
330
1F
100
AcDbEntity
  8
Manhattan_UTM14_Clip
100
AcDbPolyline
 90
        5
 70
     1
 43
0.0
 10
710999.9999975
 20
4345894.63644
 10
710999.9999975
 20
4344999.99999
 10
710000.0000074999
 20
4344999.99999
 10
710000.0000074999
 20
4346000.0000025
 10
710929.75763
 20
4346000.0000025
  0
LWPOLYLINE
  5
197
330
1F
100
AcDbEntity
  8
Manhattan_UTM14_Clip
100
AcDbPolyline
 90
        4
 70
     1
 43
0.0
 10
710929.75763
 20
4346000.0000025
 10
710000.0000074999
 20
4346000.0000025
 10
710000.0000074999
 20
4346456.027865
 10
710478.5063374999
 20
4346676.87693
  0
LWPOLYLINE
  5
198
330
1F
100
AcDbEntity
  8
Manhattan_UTM14_Clip
100
AcDbPolyline
 90
        4
 70
     1
 43
0.0
 10
710999.9999975
 20
4326821.5749
 10
710999.9999975
 20
4326999.99999
 10
711325.136945
 20
4326999.99999
 10
711358.3628975001
 20
4326817.2572625
  0
LWPOLYLINE
  5
199
330
1F
100
AcDbEntity
  8
Manhattan_UTM14_Clip
100
AcDbPolyline
 90
        6
 70
     1
 43
0.0
 10
712000.00001
 20
4327587.952215
 10
711232.6690775
 20
4327508.57316
 10
711325.136945
 20
4326999.99999
 10
710999.9999975
 20
4326999.99999
 10
710999.9999975
 20
4328000.0000025
 10
712000.00001
 20
4328000.0000025
  0
LWPOLYLINE
  5
19A
330
1F
100
AcDbEntity
  8
Manhattan_UTM14_Clip
100
AcDbPolyline
 90
        4
 70
     1
 43
0.0
 10
712000.00001
 20
4328000.0000025
 10
710999.9999975
 20
4328000.0000025
 10
710999.9999975
 20
4328999.9999925
 10
712000.00001
 20
4328999.9999925
  0
LWPOLYLINE
  5
19B
330
1F
100
AcDbEntity
  8
Manhattan_UTM14_Clip
100
AcDbPolyline
 90
        4
 70
     1
 43
0.0
 10
712000.00001
 20
4328999.9999925
 10
710999.9999975
 20
4328999.9999925
 10
710999.9999975
 20
4330000.000005
 10
712000.00001
 20
4330000.000005
  0
LWPOLYLINE
  5
19C
330
1F
100
AcDbEntity
  8
Manhattan_UTM14_Clip
100
AcDbPolyline
 90
        4
 70
     1
 43
0.0
 10
712000.00001
 20
4330000.000005
 10
710999.9999975
 20
4330000.000005
 10
710999.9999975
 20
4330999.999995
 10
712000.00001
 20
4330999.999995
  0
LWPOLYLINE
  5
19D
330
1F
100
AcDbEntity
  8
Manhattan_UTM14_Clip
100
AcDbPolyline
 90
        4
 70
     1
 43
0.0
 10
712000.00001
 20
4330999.999995
 10
710999.9999975
 20
4330999.999995
 10
710999.9999975
 20
4332000.0000075
 10
712000.00001
 20
4332000.0000075
  0
LWPOLYLINE
  5
19E
330
1F
100
AcDbEntity
  8
Manhattan_UTM14_Clip
100
AcDbPolyline
 90
        4
 70
     1
 43
0.0
 10
712000.00001
 20
4332000.0000075
 10
710999.9999975
 20
4332000.0000075
 10
710999.9999975
 20
4332999.9999975
 10
712000.00001
 20
4332999.9999975
  0
LWPOLYLINE
  5
19F
330
1F
100
AcDbEntity
  8
Manhattan_UTM14_Clip
100
AcDbPolyline
 90
        4
 70
     1
 43
0.0
 10
712000.00001
 20
4332999.9999975
 10
710999.9999975
 20
4332999.9999975
 10
710999.9999975
 20
4334000.00001
 10
712000.00001
 20
4334000.00001
  0
LWPOLYLINE
  5
1A0
330
1F
100
AcDbEntity
  8
Manhattan_UTM14_Clip
100
AcDbPolyline
 90
        4
 70
     1
 43
0.0
 10
712000.00001
 20
4334000.00001
 10
710999.9999975
 20
4334000.00001
 10
710999.9999975
 20
4335000.0
 10
712000.00001
 20
4335000.0
  0
LWPOLYLINE
  5
1A1
330
1F
100
AcDbEntity
  8
Manhattan_UTM14_Clip
100
AcDbPolyline
 90
        4
 70
     1
 43
0.0
 10
712000.00001
 20
4335000.0
 10
710999.9999975
 20
4335000.0
 10
710999.9999975
 20
4335999.99999
 10
712000.00001
 20
4335999.99999
  0
LWPOLYLINE
  5
1A2
330
1F
100
AcDbEntity
  8
Manhattan_UTM14_Clip
100
AcDbPolyline
 90
        4
 70
     1
 43
0.0
 10
712000.00001
 20
4335999.99999
 10
710999.9999975
 20
4335999.99999
 10
710999.9999975
 20
4337000.0000025
 10
712000.00001
 20
4337000.0000025
  0
LWPOLYLINE
  5
1A3
330
1F
100
AcDbEntity
  8
Manhattan_UTM14_Clip
100
AcDbPolyline
 90
        4
 70
     1
 43
0.0
 10
712000.00001
 20
4337000.0000025
 10
710999.9999975
 20
4337000.0000025
 10
710999.9999975
 20
4337999.9999925
 10
712000.00001
 20
4337999.9999925
  0
LWPOLYLINE
  5
1A4
330
1F
100
AcDbEntity
  8
Manhattan_UTM14_Clip
100
AcDbPolyline
 90
        4
 70
     1
 43
0.0
 10
712000.00001
 20
4337999.9999925
 10
710999.9999975
 20
4337999.9999925
 10
710999.9999975
 20
4339000.000005
 10
712000.00001
 20
4339000.000005
  0
LWPOLYLINE
  5
1A5
330
1F
100
AcDbEntity
  8
Manhattan_UTM14_Clip
100
AcDbPolyline
 90
        4
 70
     1
 43
0.0
 10
712000.00001
 20
4339000.000005
 10
710999.9999975
 20
4339000.000005
 10
710999.9999975
 20
4339999.999995
 10
712000.00001
 20
4339999.999995
  0
LWPOLYLINE
  5
1A6
330
1F
100
AcDbEntity
  8
Manhattan_UTM14_Clip
100
AcDbPolyline
 90
        4
 70
     1
 43
0.0
 10
712000.00001
 20
4339999.999995
 10
710999.9999975
 20
4339999.999995
 10
710999.9999975
 20
4341000.0000075
 10
712000.00001
 20
4341000.0000075
  0
LWPOLYLINE
  5
1A7
330
1F
100
AcDbEntity
  8
Manhattan_UTM14_Clip
100
AcDbPolyline
 90
        4
 70
     1
 43
0.0
 10
712000.00001
 20
4341000.0000075
 10
710999.9999975
 20
4341000.0000075
 10
710999.9999975
 20
4341999.9999975
 10
712000.00001
 20
4341999.9999975
  0
LWPOLYLINE
  5
1A8
330
1F
100
AcDbEntity
  8
Manhattan_UTM14_Clip
100
AcDbPolyline
 90
        4
 70
     1
 43
0.0
 10
712000.00001
 20
4341999.9999975
 10
710999.9999975
 20
4341999.9999975
 10
710999.9999975
 20
4343000.00001
 10
712000.00001
 20
4343000.00001
  0
LWPOLYLINE
  5
1A9
330
1F
100
AcDbEntity
  8
Manhattan_UTM14_Clip
100
AcDbPolyline
 90
        4
 70
     1
 43
0.0
 10
712000.00001
 20
4343000.00001
 10
710999.9999975
 20
4343000.00001
 10
710999.9999975
 20
4344000.0
 10
712000.00001
 20
4344000.0
  0
LWPOLYLINE
  5
1AA
330
1F
100
AcDbEntity
  8
Manhattan_UTM14_Clip
100
AcDbPolyline
 90
        7
 70
     1
 43
0.0
 10
712000.00001
 20
4344048.564945
 10
712000.00001
 20
4344000.0
 10
710999.9999975
 20
4344000.0
 10
710999.9999975
 20
4344999.99999
 10
711596.4242825001
 20
4344999.99999
 10
711609.7504925
 20
4344980.010675
 10
711735.444245
 20
4344037.30725
  0
LWPOLYLINE
  5
1AB
330
1F
100
AcDbEntity
  8
Manhattan_UTM14_Clip
100
AcDbPolyline
 90
        3
 70
     1
 43
0.0
 10
711596.4242825001
 20
4344999.99999
 10
710999.9999975
 20
4344999.99999
 10
710999.9999975
 20
4345894.63644
  0
LWPOLYLINE
  5
1AC
330
1F
100
AcDbEntity
  8
Manhattan_UTM14_Clip
100
AcDbPolyline
 90
        4
 70
     1
 43
0.0
 10
713000.0
 20
4327691.400465
 10
712000.00001
 20
4327587.952215
 10
712000.00001
 20
4328000.0000025
 10
713000.0
 20
4328000.0000025
  0
LWPOLYLINE
  5
1AD
330
1F
100
AcDbEntity
  8
Manhattan_UTM14_Clip
100
AcDbPolyline
 90
        4
 70
     1
 43
0.0
 10
713000.0
 20
4328000.0000025
 10
712000.00001
 20
4328000.0000025
 10
712000.00001
 20
4328999.9999925
 10
713000.0
 20
4328999.9999925
  0
LWPOLYLINE
  5
1AE
330
1F
100
AcDbEntity
  8
Manhattan_UTM14_Clip
100
AcDbPolyline
 90
        4
 70
     1
 43
0.0
 10
713000.0
 20
4328999.9999925
 10
712000.00001
 20
4328999.9999925
 10
712000.00001
 20
4330000.000005
 10
713000.0
 20
4330000.000005
  0
LWPOLYLINE
  5
1AF
330
1F
100
AcDbEntity
  8
Manhattan_UTM14_Clip
100
AcDbPolyline
 90
        5
 70
     1
 43
0.0
 10
713000.0
 20
4330348.1128725
 10
713000.0
 20
4330000.000005
 10
712000.00001
 20
4330000.000005
 10
712000.00001
 20
4330999.999995
 10
712986.4190225001
 20
4330999.999995
  0
LWPOLYLINE
  5
1B0
330
1F
100
AcDbEntity
  8
Manhattan_UTM14_Clip
100
AcDbPolyline
 90
        4
 70
     1
 43
0.0
 10
712986.4190225001
 20
4330999.999995
 10
712000.00001
 20
4330999.999995
 10
712000.00001
 20
4332000.0000075
 10
712965.5856875
 20
4332000.0000075
  0
LWPOLYLINE
  5
1B1
330
1F
100
AcDbEntity
  8
Manhattan_UTM14_Clip
100
AcDbPolyline
 90
        4
 70
     1
 43
0.0
 10
712965.5856875
 20
4332000.0000075
 10
712000.00001
 20
4332000.0000075
 10
712000.00001
 20
4332999.9999975
 10
712944.7523525
 20
4332999.9999975
  0
LWPOLYLINE
  5
1B2
330
1F
100
AcDbEntity
  8
Manhattan_UTM14_Clip
100
AcDbPolyline
 90
        6
 70
     1
 43
0.0
 10
713000.0
 20
4333736.940495
 10
712929.5353325
 20
4333730.41599
 10
712944.7523525
 20
4332999.9999975
 10
712000.00001
 20
4332999.9999975
 10
712000.00001
 20
4334000.00001
 10
713000.0
 20
4334000.00001
  0
LWPOLYLINE
  5
1B3
330
1F
100
AcDbEntity
  8
Manhattan_UTM14_Clip
100
AcDbPolyline
 90
        4
 70
     1
 43
0.0
 10
713000.0
 20
4334000.00001
 10
712000.00001
 20
4334000.00001
 10
712000.00001
 20
4335000.0
 10
713000.0
 20
4335000.0
  0
LWPOLYLINE
  5
1B4
330
1F
100
AcDbEntity
  8
Manhattan_UTM14_Clip
100
AcDbPolyline
 90
        4
 70
     1
 43
0.0
 10
713000.0
 20
4335000.0
 10
712000.00001
 20
4335000.0
 10
712000.00001
 20
4335999.99999
 10
713000.0
 20
4335999.99999
  0
LWPOLYLINE
  5
1B5
330
1F
100
AcDbEntity
  8
Manhattan_UTM14_Clip
100
AcDbPolyline
 90
        4
 70
     1
 43
0.0
 10
713000.0
 20
4335999.99999
 10
712000.00001
 20
4335999.99999
 10
712000.00001
 20
4337000.0000025
 10
713000.0
 20
4337000.0000025
  0
LWPOLYLINE
  5
1B6
330
1F
100
AcDbEntity
  8
Manhattan_UTM14_Clip
100
AcDbPolyline
 90
        4
 70
     1
 43
0.0
 10
713000.0
 20
4337000.0000025
 10
712000.00001
 20
4337000.0000025
 10
712000.00001
 20
4337999.9999925
 10
713000.0
 20
4337999.9999925
  0
LWPOLYLINE
  5
1B7
330
1F
100
AcDbEntity
  8
Manhattan_UTM14_Clip
100
AcDbPolyline
 90
        4
 70
     1
 43
0.0
 10
713000.0
 20
4337999.9999925
 10
712000.00001
 20
4337999.9999925
 10
712000.00001
 20
4339000.000005
 10
713000.0
 20
4339000.000005
  0
LWPOLYLINE
  5
1B8
330
1F
100
AcDbEntity
  8
Manhattan_UTM14_Clip
100
AcDbPolyline
 90
        4
 70
     1
 43
0.0
 10
713000.0
 20
4339000.000005
 10
712000.00001
 20
4339000.000005
 10
712000.00001
 20
4339999.999995
 10
713000.0
 20
4339999.999995
  0
LWPOLYLINE
  5
1B9
330
1F
100
AcDbEntity
  8
Manhattan_UTM14_Clip
100
AcDbPolyline
 90
        4
 70
     1
 43
0.0
 10
713000.0
 20
4339999.999995
 10
712000.00001
 20
4339999.999995
 10
712000.00001
 20
4341000.0000075
 10
713000.0
 20
4341000.0000075
  0
LWPOLYLINE
  5
1BA
330
1F
100
AcDbEntity
  8
Manhattan_UTM14_Clip
100
AcDbPolyline
 90
        4
 70
     1
 43
0.0
 10
713000.0
 20
4341000.0000075
 10
712000.00001
 20
4341000.0000075
 10
712000.00001
 20
4341999.9999975
 10
713000.0
 20
4341999.9999975
  0
LWPOLYLINE
  5
1BB
330
1F
100
AcDbEntity
  8
Manhattan_UTM14_Clip
100
AcDbPolyline
 90
        4
 70
     1
 43
0.0
 10
713000.0
 20
4341999.9999975
 10
712000.00001
 20
4341999.9999975
 10
712000.00001
 20
4343000.00001
 10
713000.0
 20
4343000.00001
  0
LWPOLYLINE
  5
1BC
330
1F
100
AcDbEntity
  8
Manhattan_UTM14_Clip
100
AcDbPolyline
 90
        4
 70
     1
 43
0.0
 10
713000.0
 20
4343000.00001
 10
712000.00001
 20
4343000.00001
 10
712000.00001
 20
4344000.0
 10
713000.0
 20
4344000.0
  0
LWPOLYLINE
  5
1BD
330
1F
100
AcDbEntity
  8
Manhattan_UTM14_Clip
100
AcDbPolyline
 90
        4
 70
     1
 43
0.0
 10
713000.0
 20
4344000.0
 10
712000.00001
 20
4344000.0
 10
712000.00001
 20
4344048.564945
 10
713000.0
 20
4344091.1181375
  0
LWPOLYLINE
  5
1BE
330
1F
100
AcDbEntity
  8
Manhattan_UTM14_Clip
100
AcDbPolyline
 90
        4
 70
     1
 43
0.0
 10
713000.0
 20
4327691.400465
 10
713000.0
 20
4328000.0000025
 10
713048.9190275
 20
4328000.0000025
 10
713055.2291525001
 20
4327697.1138225
  0
LWPOLYLINE
  5
1BF
330
1F
100
AcDbEntity
  8
Manhattan_UTM14_Clip
100
AcDbPolyline
 90
        4
 70
     1
 43
0.0
 10
713048.9190275
 20
4328000.0000025
 10
713000.0
 20
4328000.0000025
 10
713000.0
 20
4328999.9999925
 10
713028.0856925
 20
4328999.9999925
  0
LWPOLYLINE
  5
1C0
330
1F
100
AcDbEntity
  8
Manhattan_UTM14_Clip
100
AcDbPolyline
 90
        4
 70
     1
 43
0.0
 10
713028.0856925
 20
4328999.9999925
 10
713000.0
 20
4328999.9999925
 10
713000.0
 20
4330000.000005
 10
713007.2523575
 20
4330000.000005
  0
LWPOLYLINE
  5
1C1
330
1F
100
AcDbEntity
  8
Manhattan_UTM14_Clip
100
AcDbPolyline
 90
        3
 70
     1
 43
0.0
 10
713007.2523575
 20
4330000.000005
 10
713000.0
 20
4330000.000005
 10
713000.0
 20
4330348.1128725
  0
LWPOLYLINE
  5
1C2
330
1F
100
AcDbEntity
  8
Manhattan_UTM14_Clip
100
AcDbPolyline
 90
        4
 70
     1
 43
0.0
 10
713999.99999
 20
4333829.53308
 10
713000.0
 20
4333736.940495
 10
713000.0
 20
4334000.00001
 10
713999.99999
 20
4334000.00001
  0
LWPOLYLINE
  5
1C3
330
1F
100
AcDbEntity
  8
Manhattan_UTM14_Clip
100
AcDbPolyline
 90
        4
 70
     1
 43
0.0
 10
713999.99999
 20
4334000.00001
 10
713000.0
 20
4334000.00001
 10
713000.0
 20
4335000.0
 10
713999.99999
 20
4335000.0
  0
LWPOLYLINE
  5
1C4
330
1F
100
AcDbEntity
  8
Manhattan_UTM14_Clip
100
AcDbPolyline
 90
        4
 70
     1
 43
0.0
 10
713999.99999
 20
4335000.0
 10
713000.0
 20
4335000.0
 10
713000.0
 20
4335999.99999
 10
713999.99999
 20
4335999.99999
  0
LWPOLYLINE
  5
1C5
330
1F
100
AcDbEntity
  8
Manhattan_UTM14_Clip
100
AcDbPolyline
 90
        4
 70
     1
 43
0.0
 10
713999.99999
 20
4335999.99999
 10
713000.0
 20
4335999.99999
 10
713000.0
 20
4337000.0000025
 10
713999.99999
 20
4337000.0000025
  0
LWPOLYLINE
  5
1C6
330
1F
100
AcDbEntity
  8
Manhattan_UTM14_Clip
100
AcDbPolyline
 90
        4
 70
     1
 43
0.0
 10
713999.99999
 20
4337000.0000025
 10
713000.0
 20
4337000.0000025
 10
713000.0
 20
4337999.9999925
 10
713999.99999
 20
4337999.9999925
  0
LWPOLYLINE
  5
1C7
330
1F
100
AcDbEntity
  8
Manhattan_UTM14_Clip
100
AcDbPolyline
 90
        4
 70
     1
 43
0.0
 10
713999.99999
 20
4337999.9999925
 10
713000.0
 20
4337999.9999925
 10
713000.0
 20
4339000.000005
 10
713999.99999
 20
4339000.000005
  0
LWPOLYLINE
  5
1C8
330
1F
100
AcDbEntity
  8
Manhattan_UTM14_Clip
100
AcDbPolyline
 90
        4
 70
     1
 43
0.0
 10
713999.99999
 20
4339000.000005
 10
713000.0
 20
4339000.000005
 10
713000.0
 20
4339999.999995
 10
713999.99999
 20
4339999.999995
  0
LWPOLYLINE
  5
1C9
330
1F
100
AcDbEntity
  8
Manhattan_UTM14_Clip
100
AcDbPolyline
 90
        4
 70
     1
 43
0.0
 10
713999.99999
 20
4339999.999995
 10
713000.0
 20
4339999.999995
 10
713000.0
 20
4341000.0000075
 10
713999.99999
 20
4341000.0000075
  0
LWPOLYLINE
  5
1CA
330
1F
100
AcDbEntity
  8
Manhattan_UTM14_Clip
100
AcDbPolyline
 90
        4
 70
     1
 43
0.0
 10
713999.99999
 20
4341000.0000075
 10
713000.0
 20
4341000.0000075
 10
713000.0
 20
4341999.9999975
 10
713999.99999
 20
4341999.9999975
  0
LWPOLYLINE
  5
1CB
330
1F
100
AcDbEntity
  8
Manhattan_UTM14_Clip
100
AcDbPolyline
 90
        4
 70
     1
 43
0.0
 10
713999.99999
 20
4341999.9999975
 10
713000.0
 20
4341999.9999975
 10
713000.0
 20
4343000.00001
 10
713999.99999
 20
4343000.00001
  0
LWPOLYLINE
  5
1CC
330
1F
100
AcDbEntity
  8
Manhattan_UTM14_Clip
100
AcDbPolyline
 90
        4
 70
     1
 43
0.0
 10
713999.99999
 20
4343000.00001
 10
713000.0
 20
4343000.00001
 10
713000.0
 20
4344000.0
 10
713999.99999
 20
4344000.0
  0
LWPOLYLINE
  5
1CD
330
1F
100
AcDbEntity
  8
Manhattan_UTM14_Clip
100
AcDbPolyline
 90
        4
 70
     1
 43
0.0
 10
713999.99999
 20
4344000.0
 10
713000.0
 20
4344000.0
 10
713000.0
 20
4344091.1181375
 10
713999.99999
 20
4344133.67133
  0
LWPOLYLINE
  5
1CE
330
1F
100
AcDbEntity
  8
Manhattan_UTM14_Clip
100
AcDbPolyline
 90
        4
 70
     1
 43
0.0
 10
715000.0000025
 20
4333922.125687501
 10
713999.99999
 20
4333829.53308
 10
713999.99999
 20
4334000.00001
 10
715000.0000025
 20
4334000.00001
  0
LWPOLYLINE
  5
1CF
330
1F
100
AcDbEntity
  8
Manhattan_UTM14_Clip
100
AcDbPolyline
 90
        4
 70
     1
 43
0.0
 10
715000.0000025
 20
4334000.00001
 10
713999.99999
 20
4334000.00001
 10
713999.99999
 20
4335000.0
 10
715000.0000025
 20
4335000.0
  0
LWPOLYLINE
  5
1D0
330
1F
100
AcDbEntity
  8
Manhattan_UTM14_Clip
100
AcDbPolyline
 90
        4
 70
     1
 43
0.0
 10
715000.0000025
 20
4335000.0
 10
713999.99999
 20
4335000.0
 10
713999.99999
 20
4335999.99999
 10
715000.0000025
 20
4335999.99999
  0
LWPOLYLINE
  5
1D1
330
1F
100
AcDbEntity
  8
Manhattan_UTM14_Clip
100
AcDbPolyline
 90
        4
 70
     1
 43
0.0
 10
715000.0000025
 20
4335999.99999
 10
713999.99999
 20
4335999.99999
 10
713999.99999
 20
4337000.0000025
 10
715000.0000025
 20
4337000.0000025
  0
LWPOLYLINE
  5
1D2
330
1F
100
AcDbEntity
  8
Manhattan_UTM14_Clip
100
AcDbPolyline
 90
        4
 70
     1
 43
0.0
 10
715000.0000025
 20
4337000.0000025
 10
713999.99999
 20
4337000.0000025
 10
713999.99999
 20
4337999.9999925
 10
715000.0000025
 20
4337999.9999925
  0
LWPOLYLINE
  5
1D3
330
1F
100
AcDbEntity
  8
Manhattan_UTM14_Clip
100
AcDbPolyline
 90
        4
 70
     1
 43
0.0
 10
715000.0000025
 20
4337999.9999925
 10
713999.99999
 20
4337999.9999925
 10
713999.99999
 20
4339000.000005
 10
715000.0000025
 20
4339000.000005
  0
LWPOLYLINE
  5
1D4
330
1F
100
AcDbEntity
  8
Manhattan_UTM14_Clip
100
AcDbPolyline
 90
        4
 70
     1
 43
0.0
 10
715000.0000025
 20
4339000.000005
 10
713999.99999
 20
4339000.000005
 10
713999.99999
 20
4339999.999995
 10
715000.0000025
 20
4339999.999995
  0
LWPOLYLINE
  5
1D5
330
1F
100
AcDbEntity
  8
Manhattan_UTM14_Clip
100
AcDbPolyline
 90
        4
 70
     1
 43
0.0
 10
715000.0000025
 20
4339999.999995
 10
713999.99999
 20
4339999.999995
 10
713999.99999
 20
4341000.0000075
 10
715000.0000025
 20
4341000.0000075
  0
LWPOLYLINE
  5
1D6
330
1F
100
AcDbEntity
  8
Manhattan_UTM14_Clip
100
AcDbPolyline
 90
        4
 70
     1
 43
0.0
 10
715000.0000025
 20
4341000.0000075
 10
713999.99999
 20
4341000.0000075
 10
713999.99999
 20
4341999.9999975
 10
715000.0000025
 20
4341999.9999975
  0
LWPOLYLINE
  5
1D7
330
1F
100
AcDbEntity
  8
Manhattan_UTM14_Clip
100
AcDbPolyline
 90
        4
 70
     1
 43
0.0
 10
715000.0000025
 20
4341999.9999975
 10
713999.99999
 20
4341999.9999975
 10
713999.99999
 20
4343000.00001
 10
715000.0000025
 20
4343000.00001
  0
LWPOLYLINE
  5
1D8
330
1F
100
AcDbEntity
  8
Manhattan_UTM14_Clip
100
AcDbPolyline
 90
        4
 70
     1
 43
0.0
 10
715000.0000025
 20
4343000.00001
 10
713999.99999
 20
4343000.00001
 10
713999.99999
 20
4344000.0
 10
715000.0000025
 20
4344000.0
  0
LWPOLYLINE
  5
1D9
330
1F
100
AcDbEntity
  8
Manhattan_UTM14_Clip
100
AcDbPolyline
 90
        4
 70
     1
 43
0.0
 10
715000.0000025
 20
4344000.0
 10
713999.99999
 20
4344000.0
 10
713999.99999
 20
4344133.67133
 10
715000.0000025
 20
4344176.2245225
  0
LWPOLYLINE
  5
1DA
330
1F
100
AcDbEntity
  8
Manhattan_UTM14_Clip
100
AcDbPolyline
 90
        3
 70
     1
 43
0.0
 10
715000.0000025
 20
4333922.125687501
 10
715000.0000025
 20
4334000.00001
 10
715841.0427575
 20
4334000.00001
  0
LWPOLYLINE
  5
1DB
330
1F
100
AcDbEntity
  8
Manhattan_UTM14_Clip
100
AcDbPolyline
 90
        5
 70
     1
 43
0.0
 10
715999.9999924999
 20
4334014.7182725
 10
715841.0427575
 20
4334000.00001
 10
715000.0000025
 20
4334000.00001
 10
715000.0000025
 20
4335000.0
 10
715999.9999924999
 20
4335000.0
  0
LWPOLYLINE
  5
1DC
330
1F
100
AcDbEntity
  8
Manhattan_UTM14_Clip
100
AcDbPolyline
 90
        4
 70
     1
 43
0.0
 10
715999.9999924999
 20
4335000.0
 10
715000.0000025
 20
4335000.0
 10
715000.0000025
 20
4335999.99999
 10
715999.9999924999
 20
4335999.99999
  0
LWPOLYLINE
  5
1DD
330
1F
100
AcDbEntity
  8
Manhattan_UTM14_Clip
100
AcDbPolyline
 90
        4
 70
     1
 43
0.0
 10
715999.9999924999
 20
4335999.99999
 10
715000.0000025
 20
4335999.99999
 10
715000.0000025
 20
4337000.0000025
 10
715999.9999924999
 20
4337000.0000025
  0
LWPOLYLINE
  5
1DE
330
1F
100
AcDbEntity
  8
Manhattan_UTM14_Clip
100
AcDbPolyline
 90
        4
 70
     1
 43
0.0
 10
715999.9999924999
 20
4337000.0000025
 10
715000.0000025
 20
4337000.0000025
 10
715000.0000025
 20
4337999.9999925
 10
715999.9999924999
 20
4337999.9999925
  0
LWPOLYLINE
  5
1DF
330
1F
100
AcDbEntity
  8
Manhattan_UTM14_Clip
100
AcDbPolyline
 90
        4
 70
     1
 43
0.0
 10
715999.9999924999
 20
4337999.9999925
 10
715000.0000025
 20
4337999.9999925
 10
715000.0000025
 20
4339000.000005
 10
715999.9999924999
 20
4339000.000005
  0
LWPOLYLINE
  5
1E0
330
1F
100
AcDbEntity
  8
Manhattan_UTM14_Clip
100
AcDbPolyline
 90
        4
 70
     1
 43
0.0
 10
715999.9999924999
 20
4339000.000005
 10
715000.0000025
 20
4339000.000005
 10
715000.0000025
 20
4339999.999995
 10
715999.9999924999
 20
4339999.999995
  0
LWPOLYLINE
  5
1E1
330
1F
100
AcDbEntity
  8
Manhattan_UTM14_Clip
100
AcDbPolyline
 90
        4
 70
     1
 43
0.0
 10
715999.9999924999
 20
4339999.999995
 10
715000.0000025
 20
4339999.999995
 10
715000.0000025
 20
4341000.0000075
 10
715999.9999924999
 20
4341000.0000075
  0
LWPOLYLINE
  5
1E2
330
1F
100
AcDbEntity
  8
Manhattan_UTM14_Clip
100
AcDbPolyline
 90
        4
 70
     1
 43
0.0
 10
715999.9999924999
 20
4341000.0000075
 10
715000.0000025
 20
4341000.0000075
 10
715000.0000025
 20
4341999.9999975
 10
715999.9999924999
 20
4341999.9999975
  0
LWPOLYLINE
  5
1E3
330
1F
100
AcDbEntity
  8
Manhattan_UTM14_Clip
100
AcDbPolyline
 90
        4
 70
     1
 43
0.0
 10
715999.9999924999
 20
4341999.9999975
 10
715000.0000025
 20
4341999.9999975
 10
715000.0000025
 20
4343000.00001
 10
715999.9999924999
 20
4343000.00001
  0
LWPOLYLINE
  5
1E4
330
1F
100
AcDbEntity
  8
Manhattan_UTM14_Clip
100
AcDbPolyline
 90
        4
 70
     1
 43
0.0
 10
715999.9999924999
 20
4343000.00001
 10
715000.0000025
 20
4343000.00001
 10
715000.0000025
 20
4344000.0
 10
715999.9999924999
 20
4344000.0
  0
LWPOLYLINE
  5
1E5
330
1F
100
AcDbEntity
  8
Manhattan_UTM14_Clip
100
AcDbPolyline
 90
        4
 70
     1
 43
0.0
 10
715999.9999924999
 20
4344000.0
 10
715000.0000025
 20
4344000.0
 10
715000.0000025
 20
4344176.2245225
 10
715999.9999924999
 20
4344218.777715
  0
LWPOLYLINE
  5
1E6
330
1F
100
AcDbEntity
  8
Manhattan_UTM14_Clip
100
AcDbPolyline
 90
        4
 70
     1
 43
0.0
 10
715999.9999924999
 20
4334014.7182725
 10
715999.9999924999
 20
4335000.0
 10
716292.9392375
 20
4335000.0
 10
716323.2677975
 20
4334044.6504725
  0
LWPOLYLINE
  5
1E7
330
1F
100
AcDbEntity
  8
Manhattan_UTM14_Clip
100
AcDbPolyline
 90
        4
 70
     1
 43
0.0
 10
716292.9392375
 20
4335000.0
 10
715999.9999924999
 20
4335000.0
 10
715999.9999924999
 20
4335999.99999
 10
716261.1932
 20
4335999.99999
  0
LWPOLYLINE
  5
1E8
330
1F
100
AcDbEntity
  8
Manhattan_UTM14_Clip
100
AcDbPolyline
 90
        4
 70
     1
 43
0.0
 10
716261.1932
 20
4335999.99999
 10
715999.9999924999
 20
4335999.99999
 10
715999.9999924999
 20
4337000.0000025
 10
716229.4471625
 20
4337000.0000025
  0
LWPOLYLINE
  5
1E9
330
1F
100
AcDbEntity
  8
Manhattan_UTM14_Clip
100
AcDbPolyline
 90
        4
 70
     1
 43
0.0
 10
716229.4471625
 20
4337000.0000025
 10
715999.9999924999
 20
4337000.0000025
 10
715999.9999924999
 20
4337999.9999925
 10
716197.701125
 20
4337999.9999925
  0
LWPOLYLINE
  5
1EA
330
1F
100
AcDbEntity
  8
Manhattan_UTM14_Clip
100
AcDbPolyline
 90
        6
 70
     1
 43
0.0
 10
717000.000005
 20
4338127.4552025
 10
716197.5739775
 20
4338004.0050375
 10
716197.701125
 20
4337999.9999925
 10
715999.9999924999
 20
4337999.9999925
 10
715999.9999924999
 20
4339000.000005
 10
717000.000005
 20
4339000.000005
  0
LWPOLYLINE
  5
1EB
330
1F
100
AcDbEntity
  8
Manhattan_UTM14_Clip
100
AcDbPolyline
 90
        4
 70
     1
 43
0.0
 10
717000.000005
 20
4339000.000005
 10
715999.9999924999
 20
4339000.000005
 10
715999.9999924999
 20
4339999.999995
 10
717000.000005
 20
4339999.999995
  0
LWPOLYLINE
  5
1EC
330
1F
100
AcDbEntity
  8
Manhattan_UTM14_Clip
100
AcDbPolyline
 90
        4
 70
     1
 43
0.0
 10
717000.000005
 20
4339999.999995
 10
715999.9999924999
 20
4339999.999995
 10
715999.9999924999
 20
4341000.0000075
 10
717000.000005
 20
4341000.0000075
  0
LWPOLYLINE
  5
1ED
330
1F
100
AcDbEntity
  8
Manhattan_UTM14_Clip
100
AcDbPolyline
 90
        4
 70
     1
 43
0.0
 10
717000.000005
 20
4341000.0000075
 10
715999.9999924999
 20
4341000.0000075
 10
715999.9999924999
 20
4341999.9999975
 10
717000.000005
 20
4341999.9999975
  0
LWPOLYLINE
  5
1EE
330
1F
100
AcDbEntity
  8
Manhattan_UTM14_Clip
100
AcDbPolyline
 90
        4
 70
     1
 43
0.0
 10
717000.000005
 20
4341999.9999975
 10
715999.9999924999
 20
4341999.9999975
 10
715999.9999924999
 20
4343000.00001
 10
717000.000005
 20
4343000.00001
  0
LWPOLYLINE
  5
1EF
330
1F
100
AcDbEntity
  8
Manhattan_UTM14_Clip
100
AcDbPolyline
 90
        4
 70
     1
 43
0.0
 10
717000.000005
 20
4343000.00001
 10
715999.9999924999
 20
4343000.00001
 10
715999.9999924999
 20
4344000.0
 10
717000.000005
 20
4344000.0
  0
LWPOLYLINE
  5
1F0
330
1F
100
AcDbEntity
  8
Manhattan_UTM14_Clip
100
AcDbPolyline
 90
        4
 70
     1
 43
0.0
 10
717000.000005
 20
4344000.0
 10
715999.9999924999
 20
4344000.0
 10
715999.9999924999
 20
4344218.777715
 10
717000.000005
 20
4344261.3309075
  0
LWPOLYLINE
  5
1F1
330
1F
100
AcDbEntity
  8
Manhattan_UTM14_Clip
100
AcDbPolyline
 90
        4
 70
     1
 43
0.0
 10
717000.000005
 20
4338127.4552025
 10
717000.000005
 20
4339000.000005
 10
717808.324385
 20
4339000.000005
 10
717831.5933675
 20
4338255.3926325
  0
LWPOLYLINE
  5
1F2
330
1F
100
AcDbEntity
  8
Manhattan_UTM14_Clip
100
AcDbPolyline
 90
        4
 70
     1
 43
0.0
 10
717808.324385
 20
4339000.000005
 10
717000.000005
 20
4339000.000005
 10
717000.000005
 20
4339999.999995
 10
717777.0743825
 20
4339999.999995
  0
LWPOLYLINE
  5
1F3
330
1F
100
AcDbEntity
  8
Manhattan_UTM14_Clip
100
AcDbPolyline
 90
        4
 70
     1
 43
0.0
 10
717777.0743825
 20
4339999.999995
 10
717000.000005
 20
4339999.999995
 10
717000.000005
 20
4341000.0000075
 10
717745.82438
 20
4341000.0000075
  0
LWPOLYLINE
  5
1F4
330
1F
100
AcDbEntity
  8
Manhattan_UTM14_Clip
100
AcDbPolyline
 90
        4
 70
     1
 43
0.0
 10
717745.82438
 20
4341000.0000075
 10
717000.000005
 20
4341000.0000075
 10
717000.000005
 20
4341999.9999975
 10
717714.5743775
 20
4341999.9999975
  0
LWPOLYLINE
  5
1F5
330
1F
100
AcDbEntity
  8
Manhattan_UTM14_Clip
100
AcDbPolyline
 90
        4
 70
     1
 43
0.0
 10
717714.5743775
 20
4341999.9999975
 10
717000.000005
 20
4341999.9999975
 10
717000.000005
 20
4343000.00001
 10
717683.324375
 20
4343000.00001
  0
LWPOLYLINE
  5
1F6
330
1F
100
AcDbEntity
  8
Manhattan_UTM14_Clip
100
AcDbPolyline
 90
        4
 70
     1
 43
0.0
 10
717683.324375
 20
4343000.00001
 10
717000.000005
 20
4343000.00001
 10
717000.000005
 20
4344000.0
 10
717652.07435
 20
4344000.0
  0
LWPOLYLINE
  5
1F7
330
1F
100
AcDbEntity
  8
Manhattan_UTM14_Clip
100
AcDbPolyline
 90
        4
 70
     1
 43
0.0
 10
717652.07435
 20
4344000.0
 10
717000.000005
 20
4344000.0
 10
717000.000005
 20
4344261.3309075
 10
717643.0526375
 20
4344288.694845
  0
LWPOLYLINE
  5
1F8
330
1F
100
AcDbEntity
  8
Manhattan_UTM14_Clip
100
AcDbPolyline
 90
        4
 70
     1
 43
0.0
 10
681999.999995
 20
4317272.69001
 10
681478.296275
 20
4317268.864425
 10
681452.22863
 20
4317999.99999
 10
681999.999995
 20
4317999.99999
  0
LWPOLYLINE
  5
1F9
330
1F
100
AcDbEntity
  8
Manhattan_UTM14_Clip
100
AcDbPolyline
 90
        4
 70
     1
 43
0.0
 10
681999.999995
 20
4317999.99999
 10
681452.22863
 20
4317999.99999
 10
681416.574995
 20
4319000.0000025
 10
681999.999995
 20
4319000.0000025
  0
LWPOLYLINE
  5
1FA
330
1F
100
AcDbEntity
  8
Manhattan_UTM14_Clip
100
AcDbPolyline
 90
        4
 70
     1
 43
0.0
 10
681999.999995
 20
4319000.0000025
 10
681416.574995
 20
4319000.0000025
 10
681380.92136
 20
4319999.9999925
 10
681999.999995
 20
4319999.9999925
  0
LWPOLYLINE
  5
1FB
330
1F
100
AcDbEntity
  8
Manhattan_UTM14_Clip
100
AcDbPolyline
 90
        4
 70
     1
 43
0.0
 10
681999.999995
 20
4319999.9999925
 10
681380.92136
 20
4319999.9999925
 10
681345.2677025
 20
4321000.000005
 10
681999.999995
 20
4321000.000005
  0
LWPOLYLINE
  5
1FC
330
1F
100
AcDbEntity
  8
Manhattan_UTM14_Clip
100
AcDbPolyline
 90
        4
 70
     1
 43
0.0
 10
681999.999995
 20
4321000.000005
 10
681345.2677025
 20
4321000.000005
 10
681309.6140675
 20
4321999.999995
 10
681999.999995
 20
4321999.999995
  0
LWPOLYLINE
  5
1FD
330
1F
100
AcDbEntity
  8
Manhattan_UTM14_Clip
100
AcDbPolyline
 90
        4
 70
     1
 43
0.0
 10
681999.999995
 20
4321999.999995
 10
681309.6140675
 20
4321999.999995
 10
681273.9604100001
 20
4323000.0000075
 10
681999.999995
 20
4323000.0000075
  0
LWPOLYLINE
  5
1FE
330
1F
100
AcDbEntity
  8
Manhattan_UTM14_Clip
100
AcDbPolyline
 90
        4
 70
     1
 43
0.0
 10
681999.999995
 20
4323000.0000075
 10
681273.9604100001
 20
4323000.0000075
 10
681238.306775
 20
4323999.9999975
 10
681999.999995
 20
4323999.9999975
  0
LWPOLYLINE
  5
1FF
330
1F
100
AcDbEntity
  8
Manhattan_UTM14_Clip
100
AcDbPolyline
 90
        4
 70
     1
 43
0.0
 10
681999.999995
 20
4323999.9999975
 10
681238.306775
 20
4323999.9999975
 10
681202.6531175
 20
4325000.00001
 10
681999.999995
 20
4325000.00001
  0
LWPOLYLINE
  5
200
330
1F
100
AcDbEntity
  8
Manhattan_UTM14_Clip
100
AcDbPolyline
 90
        4
 70
     1
 43
0.0
 10
681999.999995
 20
4325000.00001
 10
681202.6531175
 20
4325000.00001
 10
681166.99946
 20
4326000.0
 10
681999.999995
 20
4326000.0
  0
LWPOLYLINE
  5
201
330
1F
100
AcDbEntity
  8
Manhattan_UTM14_Clip
100
AcDbPolyline
 90
        4
 70
     1
 43
0.0
 10
681999.999995
 20
4326000.0
 10
681166.99946
 20
4326000.0
 10
681131.345825
 20
4326999.99999
 10
681999.999995
 20
4326999.99999
  0
LWPOLYLINE
  5
202
330
1F
100
AcDbEntity
  8
Manhattan_UTM14_Clip
100
AcDbPolyline
 90
        4
 70
     1
 43
0.0
 10
681999.999995
 20
4326999.99999
 10
681131.345825
 20
4326999.99999
 10
681095.6921675
 20
4328000.0000025
 10
681999.999995
 20
4328000.0000025
  0
LWPOLYLINE
  5
203
330
1F
100
AcDbEntity
  8
Manhattan_UTM14_Clip
100
AcDbPolyline
 90
        4
 70
     1
 43
0.0
 10
681999.999995
 20
4328827.013760001
 10
681999.999995
 20
4328000.0000025
 10
681095.6921675
 20
4328000.0000025
 10
681066.158195
 20
4328828.3579775
  0
LWPOLYLINE
  5
204
330
1F
100
AcDbEntity
  8
Manhattan_UTM14_Clip
100
AcDbPolyline
 90
        4
 70
     1
 43
0.0
 10
683000.0000075001
 20
4317280.022895
 10
681999.999995
 20
4317272.69001
 10
681999.999995
 20
4317999.99999
 10
683000.0000075001
 20
4317999.99999
  0
LWPOLYLINE
  5
205
330
1F
100
AcDbEntity
  8
Manhattan_UTM14_Clip
100
AcDbPolyline
 90
        4
 70
     1
 43
0.0
 10
683000.0000075001
 20
4317999.99999
 10
681999.999995
 20
4317999.99999
 10
681999.999995
 20
4319000.0000025
 10
683000.0000075001
 20
4319000.0000025
  0
LWPOLYLINE
  5
206
330
1F
100
AcDbEntity
  8
Manhattan_UTM14_Clip
100
AcDbPolyline
 90
        4
 70
     1
 43
0.0
 10
683000.0000075001
 20
4319000.0000025
 10
681999.999995
 20
4319000.0000025
 10
681999.999995
 20
4319999.9999925
 10
683000.0000075001
 20
4319999.9999925
  0
LWPOLYLINE
  5
207
330
1F
100
AcDbEntity
  8
Manhattan_UTM14_Clip
100
AcDbPolyline
 90
        4
 70
     1
 43
0.0
 10
683000.0000075001
 20
4319999.9999925
 10
681999.999995
 20
4319999.9999925
 10
681999.999995
 20
4321000.000005
 10
683000.0000075001
 20
4321000.000005
  0
LWPOLYLINE
  5
208
330
1F
100
AcDbEntity
  8
Manhattan_UTM14_Clip
100
AcDbPolyline
 90
        4
 70
     1
 43
0.0
 10
683000.0000075001
 20
4321000.000005
 10
681999.999995
 20
4321000.000005
 10
681999.999995
 20
4321999.999995
 10
683000.0000075001
 20
4321999.999995
  0
LWPOLYLINE
  5
209
330
1F
100
AcDbEntity
  8
Manhattan_UTM14_Clip
100
AcDbPolyline
 90
        4
 70
     1
 43
0.0
 10
683000.0000075001
 20
4321999.999995
 10
681999.999995
 20
4321999.999995
 10
681999.999995
 20
4323000.0000075
 10
683000.0000075001
 20
4323000.0000075
  0
LWPOLYLINE
  5
20A
330
1F
100
AcDbEntity
  8
Manhattan_UTM14_Clip
100
AcDbPolyline
 90
        4
 70
     1
 43
0.0
 10
683000.0000075001
 20
4323000.0000075
 10
681999.999995
 20
4323000.0000075
 10
681999.999995
 20
4323999.9999975
 10
683000.0000075001
 20
4323999.9999975
  0
LWPOLYLINE
  5
20B
330
1F
100
AcDbEntity
  8
Manhattan_UTM14_Clip
100
AcDbPolyline
 90
        4
 70
     1
 43
0.0
 10
683000.0000075001
 20
4323999.9999975
 10
681999.999995
 20
4323999.9999975
 10
681999.999995
 20
4325000.00001
 10
683000.0000075001
 20
4325000.00001
  0
LWPOLYLINE
  5
20C
330
1F
100
AcDbEntity
  8
Manhattan_UTM14_Clip
100
AcDbPolyline
 90
        4
 70
     1
 43
0.0
 10
683000.0000075001
 20
4325000.00001
 10
681999.999995
 20
4325000.00001
 10
681999.999995
 20
4326000.0
 10
683000.0000075001
 20
4326000.0
  0
LWPOLYLINE
  5
20D
330
1F
100
AcDbEntity
  8
Manhattan_UTM14_Clip
100
AcDbPolyline
 90
        4
 70
     1
 43
0.0
 10
683000.0000075001
 20
4326000.0
 10
681999.999995
 20
4326000.0
 10
681999.999995
 20
4326999.99999
 10
683000.0000075001
 20
4326999.99999
  0
LWPOLYLINE
  5
20E
330
1F
100
AcDbEntity
  8
Manhattan_UTM14_Clip
100
AcDbPolyline
 90
        4
 70
     1
 43
0.0
 10
683000.0000075001
 20
4326999.99999
 10
681999.999995
 20
4326999.99999
 10
681999.999995
 20
4328000.0000025
 10
683000.0000075001
 20
4328000.0000025
  0
LWPOLYLINE
  5
20F
330
1F
100
AcDbEntity
  8
Manhattan_UTM14_Clip
100
AcDbPolyline
 90
        4
 70
     1
 43
0.0
 10
683000.0000075001
 20
4328825.5743225
 10
683000.0000075001
 20
4328000.0000025
 10
681999.999995
 20
4328000.0000025
 10
681999.999995
 20
4328827.013760001
  0
LWPOLYLINE
  5
210
330
1F
100
AcDbEntity
  8
Manhattan_UTM14_Clip
100
AcDbPolyline
 90
        4
 70
     1
 43
0.0
 10
683999.9999975
 20
4317287.3557575
 10
683000.0000075001
 20
4317280.022895
 10
683000.0000075001
 20
4317999.99999
 10
683999.9999975
 20
4317999.99999
  0
LWPOLYLINE
  5
211
330
1F
100
AcDbEntity
  8
Manhattan_UTM14_Clip
100
AcDbPolyline
 90
        4
 70
     1
 43
0.0
 10
683999.9999975
 20
4317999.99999
 10
683000.0000075001
 20
4317999.99999
 10
683000.0000075001
 20
4319000.0000025
 10
683999.9999975
 20
4319000.0000025
  0
LWPOLYLINE
  5
212
330
1F
100
AcDbEntity
  8
Manhattan_UTM14_Clip
100
AcDbPolyline
 90
        4
 70
     1
 43
0.0
 10
683999.9999975
 20
4319000.0000025
 10
683000.0000075001
 20
4319000.0000025
 10
683000.0000075001
 20
4319999.9999925
 10
683999.9999975
 20
4319999.9999925
  0
LWPOLYLINE
  5
213
330
1F
100
AcDbEntity
  8
Manhattan_UTM14_Clip
100
AcDbPolyline
 90
        4
 70
     1
 43
0.0
 10
683999.9999975
 20
4319999.9999925
 10
683000.0000075001
 20
4319999.9999925
 10
683000.0000075001
 20
4321000.000005
 10
683999.9999975
 20
4321000.000005
  0
LWPOLYLINE
  5
214
330
1F
100
AcDbEntity
  8
Manhattan_UTM14_Clip
100
AcDbPolyline
 90
        4
 70
     1
 43
0.0
 10
683999.9999975
 20
4321000.000005
 10
683000.0000075001
 20
4321000.000005
 10
683000.0000075001
 20
4321999.999995
 10
683999.9999975
 20
4321999.999995
  0
LWPOLYLINE
  5
215
330
1F
100
AcDbEntity
  8
Manhattan_UTM14_Clip
100
AcDbPolyline
 90
        4
 70
     1
 43
0.0
 10
683999.9999975
 20
4321999.999995
 10
683000.0000075001
 20
4321999.999995
 10
683000.0000075001
 20
4323000.0000075
 10
683999.9999975
 20
4323000.0000075
  0
LWPOLYLINE
  5
216
330
1F
100
AcDbEntity
  8
Manhattan_UTM14_Clip
100
AcDbPolyline
 90
        4
 70
     1
 43
0.0
 10
683999.9999975
 20
4323000.0000075
 10
683000.0000075001
 20
4323000.0000075
 10
683000.0000075001
 20
4323999.9999975
 10
683999.9999975
 20
4323999.9999975
  0
LWPOLYLINE
  5
217
330
1F
100
AcDbEntity
  8
Manhattan_UTM14_Clip
100
AcDbPolyline
 90
        4
 70
     1
 43
0.0
 10
683999.9999975
 20
4323999.9999975
 10
683000.0000075001
 20
4323999.9999975
 10
683000.0000075001
 20
4325000.00001
 10
683999.9999975
 20
4325000.00001
  0
LWPOLYLINE
  5
218
330
1F
100
AcDbEntity
  8
Manhattan_UTM14_Clip
100
AcDbPolyline
 90
        5
 70
     1
 43
0.0
 10
683999.9999975
 20
4325997.5231775
 10
683999.9999975
 20
4325000.00001
 10
683000.0000075001
 20
4325000.00001
 10
683000.0000075001
 20
4326000.0
 10
683995.2940325
 20
4326000.0
  0
LWPOLYLINE
  5
219
330
1F
100
AcDbEntity
  8
Manhattan_UTM14_Clip
100
AcDbPolyline
 90
        6
 70
     1
 43
0.0
 10
683995.2940325
 20
4326000.0
 10
683000.0000075001
 20
4326000.0
 10
683000.0000075001
 20
4326999.99999
 10
683545.3014575
 20
4326999.99999
 10
683517.18719
 20
4326817.257285
 10
683517.18719
 20
4326251.635185
  0
LWPOLYLINE
  5
21A
330
1F
100
AcDbEntity
  8
Manhattan_UTM14_Clip
100
AcDbPolyline
 90
        5
 70
     1
 43
0.0
 10
683545.3014575
 20
4326999.99999
 10
683000.0000075001
 20
4326999.99999
 10
683000.0000075001
 20
4328000.0000025
 10
683886.5627375
 20
4328000.0000025
 10
683642.8809875
 20
4327634.266935
  0
LWPOLYLINE
  5
21B
330
1F
100
AcDbEntity
  8
Manhattan_UTM14_Clip
100
AcDbPolyline
 90
        5
 70
     1
 43
0.0
 10
683999.9999975
 20
4328824.1348625
 10
683999.9999975
 20
4328170.2538575
 10
683886.5627375
 20
4328000.0000025
 10
683000.0000075001
 20
4328000.0000025
 10
683000.0000075001
 20
4328825.5743225
  0
LWPOLYLINE
  5
21C
330
1F
100
AcDbEntity
  8
Manhattan_UTM14_Clip
100
AcDbPolyline
 90
        4
 70
     1
 43
0.0
 10
685000.00001
 20
4317294.6886425
 10
683999.9999975
 20
4317287.3557575
 10
683999.9999975
 20
4317999.99999
 10
685000.00001
 20
4317999.99999
  0
LWPOLYLINE
  5
21D
330
1F
100
AcDbEntity
  8
Manhattan_UTM14_Clip
100
AcDbPolyline
 90
        4
 70
     1
 43
0.0
 10
685000.00001
 20
4317999.99999
 10
683999.9999975
 20
4317999.99999
 10
683999.9999975
 20
4319000.0000025
 10
685000.00001
 20
4319000.0000025
  0
LWPOLYLINE
  5
21E
330
1F
100
AcDbEntity
  8
Manhattan_UTM14_Clip
100
AcDbPolyline
 90
        4
 70
     1
 43
0.0
 10
685000.00001
 20
4319000.0000025
 10
683999.9999975
 20
4319000.0000025
 10
683999.9999975
 20
4319999.9999925
 10
685000.00001
 20
4319999.9999925
  0
LWPOLYLINE
  5
21F
330
1F
100
AcDbEntity
  8
Manhattan_UTM14_Clip
100
AcDbPolyline
 90
        4
 70
     1
 43
0.0
 10
685000.00001
 20
4319999.9999925
 10
683999.9999975
 20
4319999.9999925
 10
683999.9999975
 20
4321000.000005
 10
685000.00001
 20
4321000.000005
  0
LWPOLYLINE
  5
220
330
1F
100
AcDbEntity
  8
Manhattan_UTM14_Clip
100
AcDbPolyline
 90
        4
 70
     1
 43
0.0
 10
685000.00001
 20
4321000.000005
 10
683999.9999975
 20
4321000.000005
 10
683999.9999975
 20
4321999.999995
 10
685000.00001
 20
4321999.999995
  0
LWPOLYLINE
  5
221
330
1F
100
AcDbEntity
  8
Manhattan_UTM14_Clip
100
AcDbPolyline
 90
        4
 70
     1
 43
0.0
 10
685000.00001
 20
4321999.999995
 10
683999.9999975
 20
4321999.999995
 10
683999.9999975
 20
4323000.0000075
 10
685000.00001
 20
4323000.0000075
  0
LWPOLYLINE
  5
222
330
1F
100
AcDbEntity
  8
Manhattan_UTM14_Clip
100
AcDbPolyline
 90
        4
 70
     1
 43
0.0
 10
685000.00001
 20
4323000.0000075
 10
683999.9999975
 20
4323000.0000075
 10
683999.9999975
 20
4323999.9999975
 10
685000.00001
 20
4323999.9999975
  0
LWPOLYLINE
  5
223
330
1F
100
AcDbEntity
  8
Manhattan_UTM14_Clip
100
AcDbPolyline
 90
        4
 70
     1
 43
0.0
 10
685000.00001
 20
4323999.9999975
 10
683999.9999975
 20
4323999.9999975
 10
683999.9999975
 20
4325000.00001
 10
685000.00001
 20
4325000.00001
  0
LWPOLYLINE
  5
224
330
1F
100
AcDbEntity
  8
Manhattan_UTM14_Clip
100
AcDbPolyline
 90
        5
 70
     1
 43
0.0
 10
685000.00001
 20
4325380.639935
 10
685000.00001
 20
4325000.00001
 10
683999.9999975
 20
4325000.00001
 10
683999.9999975
 20
4325997.5231775
 10
684711.278255
 20
4325623.1661975
  0
LWPOLYLINE
  5
225
330
1F
100
AcDbEntity
  8
Manhattan_UTM14_Clip
100
AcDbPolyline
 90
        3
 70
     1
 43
0.0
 10
683999.9999975
 20
4328170.2538575
 10
683999.9999975
 20
4328824.1348625
 10
684435.252395
 20
4328823.50835
  0
LWPOLYLINE
  5
226
330
1F
100
AcDbEntity
  8
Manhattan_UTM14_Clip
100
AcDbPolyline
 90
        4
 70
     1
 43
0.0
 10
686000.0
 20
4317302.021505
 10
685000.00001
 20
4317294.6886425
 10
685000.00001
 20
4317999.99999
 10
686000.0
 20
4317999.99999
  0
LWPOLYLINE
  5
227
330
1F
100
AcDbEntity
  8
Manhattan_UTM14_Clip
100
AcDbPolyline
 90
        4
 70
     1
 43
0.0
 10
686000.0
 20
4317999.99999
 10
685000.00001
 20
4317999.99999
 10
685000.00001
 20
4319000.0000025
 10
686000.0
 20
4319000.0000025
  0
LWPOLYLINE
  5
228
330
1F
100
AcDbEntity
  8
Manhattan_UTM14_Clip
100
AcDbPolyline
 90
        4
 70
     1
 43
0.0
 10
686000.0
 20
4319000.0000025
 10
685000.00001
 20
4319000.0000025
 10
685000.00001
 20
4319999.9999925
 10
686000.0
 20
4319999.9999925
  0
LWPOLYLINE
  5
229
330
1F
100
AcDbEntity
  8
Manhattan_UTM14_Clip
100
AcDbPolyline
 90
        4
 70
     1
 43
0.0
 10
686000.0
 20
4319999.9999925
 10
685000.00001
 20
4319999.9999925
 10
685000.00001
 20
4321000.000005
 10
686000.0
 20
4321000.000005
  0
LWPOLYLINE
  5
22A
330
1F
100
AcDbEntity
  8
Manhattan_UTM14_Clip
100
AcDbPolyline
 90
        4
 70
     1
 43
0.0
 10
686000.0
 20
4321000.000005
 10
685000.00001
 20
4321000.000005
 10
685000.00001
 20
4321999.999995
 10
686000.0
 20
4321999.999995
  0
LWPOLYLINE
  5
22B
330
1F
100
AcDbEntity
  8
Manhattan_UTM14_Clip
100
AcDbPolyline
 90
        4
 70
     1
 43
0.0
 10
686000.0
 20
4321999.999995
 10
685000.00001
 20
4321999.999995
 10
685000.00001
 20
4323000.0000075
 10
686000.0
 20
4323000.0000075
  0
LWPOLYLINE
  5
22C
330
1F
100
AcDbEntity
  8
Manhattan_UTM14_Clip
100
AcDbPolyline
 90
        4
 70
     1
 43
0.0
 10
686000.0
 20
4323000.0000075
 10
685000.00001
 20
4323000.0000075
 10
685000.00001
 20
4323999.9999975
 10
686000.0
 20
4323999.9999975
  0
LWPOLYLINE
  5
22D
330
1F
100
AcDbEntity
  8
Manhattan_UTM14_Clip
100
AcDbPolyline
 90
        5
 70
     1
 43
0.0
 10
686000.0
 20
4324540.639965
 10
686000.0
 20
4323999.9999975
 10
685000.00001
 20
4323999.9999975
 10
685000.00001
 20
4325000.00001
 10
685453.1427875001
 20
4325000.00001
  0
LWPOLYLINE
  5
22E
330
1F
100
AcDbEntity
  8
Manhattan_UTM14_Clip
100
AcDbPolyline
 90
        3
 70
     1
 43
0.0
 10
685453.1427875001
 20
4325000.00001
 10
685000.00001
 20
4325000.00001
 10
685000.00001
 20
4325380.639935
  0
LWPOLYLINE
  5
22F
330
1F
100
AcDbEntity
  8
Manhattan_UTM14_Clip
100
AcDbPolyline
 90
        4
 70
     1
 43
0.0
 10
686999.99999
 20
4317309.35439
 10
686000.0
 20
4317302.021505
 10
686000.0
 20
4317999.99999
 10
686999.99999
 20
4317999.99999
  0
LWPOLYLINE
  5
230
330
1F
100
AcDbEntity
  8
Manhattan_UTM14_Clip
100
AcDbPolyline
 90
        4
 70
     1
 43
0.0
 10
686999.99999
 20
4317999.99999
 10
686000.0
 20
4317999.99999
 10
686000.0
 20
4319000.0000025
 10
686999.99999
 20
4319000.0000025
  0
LWPOLYLINE
  5
231
330
1F
100
AcDbEntity
  8
Manhattan_UTM14_Clip
100
AcDbPolyline
 90
        4
 70
     1
 43
0.0
 10
686999.99999
 20
4319000.0000025
 10
686000.0
 20
4319000.0000025
 10
686000.0
 20
4319999.9999925
 10
686999.99999
 20
4319999.9999925
  0
LWPOLYLINE
  5
232
330
1F
100
AcDbEntity
  8
Manhattan_UTM14_Clip
100
AcDbPolyline
 90
        4
 70
     1
 43
0.0
 10
686999.99999
 20
4319999.9999925
 10
686000.0
 20
4319999.9999925
 10
686000.0
 20
4321000.000005
 10
686999.99999
 20
4321000.000005
  0
LWPOLYLINE
  5
233
330
1F
100
AcDbEntity
  8
Manhattan_UTM14_Clip
100
AcDbPolyline
 90
        4
 70
     1
 43
0.0
 10
686999.99999
 20
4321000.000005
 10
686000.0
 20
4321000.000005
 10
686000.0
 20
4321999.999995
 10
686999.99999
 20
4321999.999995
  0
LWPOLYLINE
  5
234
330
1F
100
AcDbEntity
  8
Manhattan_UTM14_Clip
100
AcDbPolyline
 90
        4
 70
     1
 43
0.0
 10
686999.99999
 20
4321999.999995
 10
686000.0
 20
4321999.999995
 10
686000.0
 20
4323000.0000075
 10
686999.99999
 20
4323000.0000075
  0
LWPOLYLINE
  5
235
330
1F
100
AcDbEntity
  8
Manhattan_UTM14_Clip
100
AcDbPolyline
 90
        6
 70
     1
 43
0.0
 10
686999.99999
 20
4323355.7999325
 10
686999.99999
 20
4323000.0000075
 10
686000.0
 20
4323000.0000075
 10
686000.0
 20
4323999.9999975
 10
686475.5115800001
 20
4323999.9999975
 10
686722.3789925
 20
4323612.06546
  0
LWPOLYLINE
  5
236
330
1F
100
AcDbEntity
  8
Manhattan_UTM14_Clip
100
AcDbPolyline
 90
        4
 70
     1
 43
0.0
 10
686475.5115800001
 20
4323999.9999975
 10
686000.0
 20
4323999.9999975
 10
686000.0
 20
4324540.639965
 10
686282.4507125
 20
4324303.38138
  0
LWPOLYLINE
  5
237
330
1F
100
AcDbEntity
  8
Manhattan_UTM14_Clip
100
AcDbPolyline
 90
        4
 70
     1
 43
0.0
 10
686999.99999
 20
4317309.35439
 10
686999.99999
 20
4317999.99999
 10
687417.551165
 20
4317999.99999
 10
687425.0586725
 20
4317312.4712925
  0
LWPOLYLINE
  5
238
330
1F
100
AcDbEntity
  8
Manhattan_UTM14_Clip
100
AcDbPolyline
 90
        4
 70
     1
 43
0.0
 10
687417.551165
 20
4317999.99999
 10
686999.99999
 20
4317999.99999
 10
686999.99999
 20
4319000.0000025
 10
687406.6316225
 20
4319000.0000025
  0
LWPOLYLINE
  5
239
330
1F
100
AcDbEntity
  8
Manhattan_UTM14_Clip
100
AcDbPolyline
 90
        6
 70
     1
 43
0.0
 10
688000.0000025
 20
4319590.85484
 10
687400.141655
 20
4319594.3439825
 10
687406.6316225
 20
4319000.0000025
 10
686999.99999
 20
4319000.0000025
 10
686999.99999
 20
4319999.9999925
 10
688000.0000025
 20
4319999.9999925
  0
LWPOLYLINE
  5
23A
330
1F
100
AcDbEntity
  8
Manhattan_UTM14_Clip
100
AcDbPolyline
 90
        4
 70
     1
 43
0.0
 10
688000.0000025
 20
4319999.9999925
 10
686999.99999
 20
4319999.9999925
 10
686999.99999
 20
4321000.000005
 10
688000.0000025
 20
4321000.000005
  0
LWPOLYLINE
  5
23B
330
1F
100
AcDbEntity
  8
Manhattan_UTM14_Clip
100
AcDbPolyline
 90
        4
 70
     1
 43
0.0
 10
688000.0000025
 20
4321000.000005
 10
686999.99999
 20
4321000.000005
 10
686999.99999
 20
4321999.999995
 10
688000.0000025
 20
4321999.999995
  0
LWPOLYLINE
  5
23C
330
1F
100
AcDbEntity
  8
Manhattan_UTM14_Clip
100
AcDbPolyline
 90
        6
 70
     1
 43
0.0
 10
688000.0000025
 20
4322950.024965
 10
688000.0000025
 20
4321999.999995
 10
686999.99999
 20
4321999.999995
 10
686999.99999
 20
4323000.0000075
 10
687385.44992
 20
4323000.0000075
 10
687539.388665
 20
4322857.90272
  0
LWPOLYLINE
  5
23D
330
1F
100
AcDbEntity
  8
Manhattan_UTM14_Clip
100
AcDbPolyline
 90
        3
 70
     1
 43
0.0
 10
687385.44992
 20
4323000.0000075
 10
686999.99999
 20
4323000.0000075
 10
686999.99999
 20
4323355.7999325
  0
LWPOLYLINE
  5
23E
330
1F
100
AcDbEntity
  8
Manhattan_UTM14_Clip
100
AcDbPolyline
 90
        4
 70
     1
 43
0.0
 10
688000.0000025
 20
4319590.85484
 10
688000.0000025
 20
4319999.9999925
 10
688687.4120825001
 20
4319999.9999925
 10
688138.5313775
 20
4319590.0490475
  0
LWPOLYLINE
  5
23F
330
1F
100
AcDbEntity
  8
Manhattan_UTM14_Clip
100
AcDbPolyline
 90
        5
 70
     1
 43
0.0
 10
688999.9999925001
 20
4320233.467305
 10
688687.4120825001
 20
4319999.9999925
 10
688000.0000025
 20
4319999.9999925
 10
688000.0000025
 20
4321000.000005
 10
688999.9999925001
 20
4321000.000005
  0
LWPOLYLINE
  5
240
330
1F
100
AcDbEntity
  8
Manhattan_UTM14_Clip
100
AcDbPolyline
 90
        4
 70
     1
 43
0.0
 10
688999.9999925001
 20
4321000.000005
 10
688000.0000025
 20
4321000.000005
 10
688000.0000025
 20
4321999.999995
 10
688999.9999925001
 20
4321999.999995
  0
LWPOLYLINE
  5
241
330
1F
100
AcDbEntity
  8
Manhattan_UTM14_Clip
100
AcDbPolyline
 90
        5
 70
     1
 43
0.0
 10
688999.9999925001
 20
4321999.999995
 10
688000.0000025
 20
4321999.999995
 10
688000.0000025
 20
4322950.024965
 10
688249.8752375
 20
4323000.0000075
 10
688999.9999925001
 20
4323000.0000075
  0
LWPOLYLINE
  5
242
330
1F
100
AcDbEntity
  8
Manhattan_UTM14_Clip
100
AcDbPolyline
 90
        4
 70
     1
 43
0.0
 10
688999.9999925001
 20
4323000.0000075
 10
688249.8752375
 20
4323000.0000075
 10
688482.0921125
 20
4323046.4433825
 10
688999.9999925001
 20
4323357.1881375
  0
LWPOLYLINE
  5
243
330
1F
100
AcDbEntity
  8
Manhattan_UTM14_Clip
100
AcDbPolyline
 90
        4
 70
     1
 43
0.0
 10
690000.000005
 20
4320980.3526225
 10
688999.9999925001
 20
4320233.467305
 10
688999.9999925001
 20
4321000.000005
 10
690000.000005
 20
4321000.000005
  0
LWPOLYLINE
  5
244
330
1F
100
AcDbEntity
  8
Manhattan_UTM14_Clip
100
AcDbPolyline
 90
        4
 70
     1
 43
0.0
 10
690000.000005
 20
4321000.000005
 10
688999.9999925001
 20
4321000.000005
 10
688999.9999925001
 20
4321999.999995
 10
690000.000005
 20
4321999.999995
  0
LWPOLYLINE
  5
245
330
1F
100
AcDbEntity
  8
Manhattan_UTM14_Clip
100
AcDbPolyline
 90
        4
 70
     1
 43
0.0
 10
690000.000005
 20
4321999.999995
 10
688999.9999925001
 20
4321999.999995
 10
688999.9999925001
 20
4323000.0000075
 10
690000.000005
 20
4323000.0000075
  0
LWPOLYLINE
  5
246
330
1F
100
AcDbEntity
  8
Manhattan_UTM14_Clip
100
AcDbPolyline
 90
        7
 70
     1
 43
0.0
 10
690000.000005
 20
4323943.100805
 10
690000.000005
 20
4323000.0000075
 10
688999.9999925001
 20
4323000.0000075
 10
688999.9999925001
 20
4323357.1881375
 10
689110.5611000001
 20
4323423.5247975
 10
689465.3150675
 20
4323999.9999975
 10
689926.0310525
 20
4323999.9999975
  0
LWPOLYLINE
  5
247
330
1F
100
AcDbEntity
  8
Manhattan_UTM14_Clip
100
AcDbPolyline
 90
        3
 70
     1
 43
0.0
 10
689926.0310525
 20
4323999.9999975
 10
689465.3150675
 20
4323999.9999975
 10
689613.3362675
 20
4324240.5344475
  0
LWPOLYLINE
  5
248
330
1F
100
AcDbEntity
  8
Manhattan_UTM14_Clip
100
AcDbPolyline
 90
        3
 70
     1
 43
0.0
 10
690000.000005
 20
4320980.3526225
 10
690000.000005
 20
4321000.000005
 10
690026.3057675
 20
4321000.000005
  0
LWPOLYLINE
  5
249
330
1F
100
AcDbEntity
  8
Manhattan_UTM14_Clip
100
AcDbPolyline
 90
        5
 70
     1
 43
0.0
 10
690026.3057675
 20
4321000.000005
 10
690000.000005
 20
4321000.000005
 10
690000.000005
 20
4321999.999995
 10
690380.9101550001
 20
4321999.999995
 10
690357.8374625
 20
4321247.6161725
  0
LWPOLYLINE
  5
24A
330
1F
100
AcDbEntity
  8
Manhattan_UTM14_Clip
100
AcDbPolyline
 90
        4
 70
     1
 43
0.0
 10
690380.9101550001
 20
4321999.999995
 10
690000.000005
 20
4321999.999995
 10
690000.000005
 20
4323000.0000075
 10
690411.57626
 20
4323000.0000075
  0
LWPOLYLINE
  5
24B
330
1F
100
AcDbEntity
  8
Manhattan_UTM14_Clip
100
AcDbPolyline
 90
        4
 70
     1
 43
0.0
 10
690411.57626
 20
4323000.0000075
 10
690000.000005
 20
4323000.0000075
 10
690000.000005
 20
4323943.100805
 10
690430.34594
 20
4323612.06546
  0
ENDSEC
  0
SECTION
  2
OBJECTS
  0
DICTIONARY
  5
C
330
0
100
AcDbDictionary
281
     1
  3
ACAD_GROUP
350
D
  3
ACAD_LAYOUT
350
1A
  3
ACAD_MLINESTYLE
350
17
  3
ACAD_PLOTSETTINGS
350
19
  3
ACAD_PLOTSTYLENAME
350
E
  0
DICTIONARY
  5
D
102
{ACAD_REACTORS
330
C
102
}
330
C
100
AcDbDictionary
281
     1
  0
DICTIONARY
  5
1A
102
{ACAD_REACTORS
330
C
102
}
330
C
100
AcDbDictionary
281
     1
  3
Layout1
350
1E
  3
Layout2
350
26
  3
Model
350
22
  0
DICTIONARY
  5
17
102
{ACAD_REACTORS
330
C
102
}
330
C
100
AcDbDictionary
281
     1
  3
Standard
350
18
  0
DICTIONARY
  5
19
102
{ACAD_REACTORS
330
C
102
}
330
C
100
AcDbDictionary
281
     1
  0
ACDBDICTIONARYWDFLT
  5
E
102
{ACAD_REACTORS
330
C
102
}
330
C
100
AcDbDictionary
281
     1
  3
Normal
350
F
100
AcDbDictionaryWithDefault
340
F
  0
LAYOUT
  5
1E
102
{ACAD_REACTORS
330
1A
102
}
330
1A
100
AcDbPlotSettings
  1

  2

  4

  6

 40
0.0
 41
0.0
 42
0.0
 43
0.0
 44
0.0
 45
0.0
 46
0.0
 47
0.0
 48
0.0
 49
0.0
140
0.0
141
0.0
142
1.0
143
1.0
 70
   688
 72
     0
 73
     0
 74
     5
  7

 75
    16
147
1.0
148
0.0
149
0.0
100
AcDbLayout
  1
Layout1
 70
     1
 71
     1
 10
0.0
 20
0.0
 11
12.0
 21
9.0
 12
0.0
 22
0.0
 32
0.0
 14
1.000000000000000E+20
 24
1.000000000000000E+20
 34
1.000000000000000E+20
 15
-1.000000000000000E+20
 25
-1.000000000000000E+20
 35
-1.000000000000000E+20
146
0.0
 13
0.0
 23
0.0
 33
0.0
 16
1.0
 26
0.0
 36
0.0
 17
0.0
 27
1.0
 37
0.0
 76
     0
330
1B
  0
LAYOUT
  5
26
102
{ACAD_REACTORS
330
1A
102
}
330
1A
100
AcDbPlotSettings
  1

  2

  4

  6

 40
0.0
 41
0.0
 42
0.0
 43
0.0
 44
0.0
 45
0.0
 46
0.0
 47
0.0
 48
0.0
 49
0.0
140
0.0
141
0.0
142
1.0
143
1.0
 70
   688
 72
     0
 73
     0
 74
     5
  7

 75
    16
147
1.0
148
0.0
149
0.0
100
AcDbLayout
  1
Layout2
 70
     1
 71
     2
 10
0.0
 20
0.0
 11
0.0
 21
0.0
 12
0.0
 22
0.0
 32
0.0
 14
0.0
 24
0.0
 34
0.0
 15
0.0
 25
0.0
 35
0.0
146
0.0
 13
0.0
 23
0.0
 33
0.0
 16
1.0
 26
0.0
 36
0.0
 17
0.0
 27
1.0
 37
0.0
 76
     0
330
23
  0
LAYOUT
  5
22
102
{ACAD_REACTORS
330
1A
102
}
330
1A
100
AcDbPlotSettings
  1

  2

  4

  6

 40
0.0
 41
0.0
 42
0.0
 43
0.0
 44
0.0
 45
0.0
 46
0.0
 47
0.0
 48
0.0
 49
0.0
140
0.0
141
0.0
142
1.0
143
1.0
 70
  1712
 72
     0
 73
     0
 74
     0
  7

 75
     0
147
1.0
148
0.0
149
0.0
100
AcDbLayout
  1
Model
 70
     1
 71
     0
 10
0.0
 20
0.0
 11
0.0
 21
0.0
 12
0.0
 22
0.0
 32
0.0
 14
681066.1581725
 24
4317268.864425
 34
0.0
 15
717831.5933675
 25
4361383.0510125
 35
0.0
146
0.0
 13
0.0
 23
0.0
 33
0.0
 16
1.0
 26
0.0
 36
0.0
 17
0.0
 27
1.0
 37
0.0
 76
     0
330
1F
  0
MLINESTYLE
  5
18
102
{ACAD_REACTORS
330
17
102
}
330
17
100
AcDbMlineStyle
  2
Standard
 70
     0
  3

 62
   256
 51
90.0
 52
90.0
 71
     2
 49
0.5
 62
   256
  6
BYLAYER
 49
-0.5
 62
   256
  6
BYLAYER
  0
ACDBPLACEHOLDER
  5
F
102
{ACAD_REACTORS
330
E
102
}
330
E
  0
ENDSEC
  0
EOF
