  0
SECTION
  2
HEADER
  9
$ACADVER
  1
AC1009
  9
$INSBASE
 10
0.0
 20
0.0
 30
0.0
  9
$EXTMIN
 10
544701.491384
 20
5024356.343237
 30
0.0
  9
$EXTMAX
 10
570095.915329
 20
5047066.067830
 30
0.0
  9
$LIMMIN
 10
544701.491384
 20
5024356.343237
  9
$LIMMAX
 10
570095.915329
 20
5047066.067830
  9
$TEXTSTYLE
  7
STANDARD
  0
ENDSEC
  0
SECTION
  2
TABLES
  0
TABLE
  2
LTYPE
 70
    25
  0
LTYPE
  2
CONTINUOUS
 70
     0
  3
Solid line
 72
    65
 73
     0
 40
0.0
  0
LTYPE
  2
BORDER
 70
     0
  3
Border __ __ . __ __ . __ __ . __ __ . __ __ .
 72
    65
 73
     6
 40
1.75
 49
0.5
 49
-0.25
 49
0.5
 49
-0.25
 49
0.0
 49
-0.25
  0
LTYPE
  2
BORDER2
 70
     0
  3
Border (.5x) __.__.__.__.__.__.__.__.__.__.__.
 72
    65
 73
     6
 40
0.875
 49
0.25
 49
-0.125
 49
0.25
 49
-0.125
 49
0.0
 49
-0.125
  0
LTYPE
  2
BORDERX2
 70
     0
  3
Border (2x) ____  ____  .  ____  ____  .  ___
 72
    65
 73
     6
 40
3.5
 49
1.0
 49
-0.5
 49
1.0
 49
-0.5
 49
0.0
 49
-0.5
  0
LTYPE
  2
CENTER
 70
     0
  3
Center ____ _ ____ _ ____ _ ____ _ ____ _ ____
 72
    65
 73
     4
 40
2.0
 49
1.25
 49
-0.25
 49
0.25
 49
-0.25
  0
LTYPE
  2
CENTER2
 70
     0
  3
Center (.5x) ___ _ ___ _ ___ _ ___ _ ___ _ ___
 72
    65
 73
     4
 40
1.125
 49
0.75
 49
-0.125
 49
0.125
 49
-0.125
  0
LTYPE
  2
CENTERX2
 70
     0
  3
Center (2x) ________  __  ________  __  _____
 72
    65
 73
     4
 40
4.0
 49
2.5
 49
-0.5
 49
0.5
 49
-0.5
  0
LTYPE
  2
DASHDOT
 70
     0
  3
Dash dot __ . __ . __ . __ . __ . __ . __ . __
 72
    65
 73
     4
 40
1.0
 49
0.5
 49
-0.25
 49
0.0
 49
-0.25
  0
LTYPE
  2
DASHDOT2
 70
     0
  3
Dash dot (.5x) _._._._._._._._._._._._._._._.
 72
    65
 73
     4
 40
0.5
 49
0.25
 49
-0.125
 49
0.0
 49
-0.125
  0
LTYPE
  2
DASHDOTX2
 70
     0
  3
Dash dot (2x) ____  .  ____  .  ____  .  ___
 72
    65
 73
     4
 40
2.0
 49
1.0
 49
-0.5
 49
0.0
 49
-0.5
  0
LTYPE
  2
DASHED
 70
     0
  3
Dashed __ __ __ __ __ __ __ __ __ __ __ __ __ _
 72
    65
 73
     2
 40
0.75
 49
0.5
 49
-0.25
  0
LTYPE
  2
DASHED2
 70
     0
  3
Dashed (.5x) _ _ _ _ _ _ _ _ _ _ _ _ _ _ _ _ _
 72
    65
 73
     2
 40
0.375
 49
0.25
 49
-0.125
  0
LTYPE
  2
DASHEDX2
 70
     0
  3
Dashed (2x) ____  ____  ____  ____  ____  ___
 72
    65
 73
     2
 40
1.5
 49
1.0
 49
-0.5
  0
LTYPE
  2
DIVIDE
 70
     0
  3
Divide ____ . . ____ . . ____ . . ____ . . ____
 72
    65
 73
     6
 40
1.25
 49
0.5
 49
-0.25
 49
0.0
 49
-0.25
 49
0.0
 49
-0.25
  0
LTYPE
  2
DIVIDE2
 70
     0
  3
Divide (.5x) __..__..__..__..__..__..__..__.._
 72
    65
 73
     6
 40
0.625
 49
0.25
 49
-0.125
 49
0.0
 49
-0.125
 49
0.0
 49
-0.125
  0
LTYPE
  2
DIVIDEX2
 70
     0
  3
Divide (2x) ________  .  .  ________  .  .  _
 72
    65
 73
     6
 40
2.5
 49
1.0
 49
-0.5
 49
0.0
 49
-0.5
 49
0.0
 49
-0.5
  0
LTYPE
  2
DOT
 70
     0
  3
Dot . . . . . . . . . . . . . . . . . . . . . .
 72
    65
 73
     2
 40
0.25
 49
0.0
 49
-0.25
  0
LTYPE
  2
DOT2
 70
     0
  3
Dot (.5x) .....................................
 72
    65
 73
     2
 40
0.125
 49
0.0
 49
-0.125
  0
LTYPE
  2
DOTX2
 70
     0
  3
Dot (2x) .  .  .  .  .  .  .  .  .  .  .  .  . 
 72
    65
 73
     2
 40
0.5
 49
0.0
 49
-0.5
  0
LTYPE
  2
HIDDEN
 70
     0
  3
Hidden __ __ __ __ __ __ __ __ __ __ __ __ __ _
 72
    65
 73
     2
 40
0.375
 49
0.25
 49
-0.125
  0
LTYPE
  2
HIDDEN2
 70
     0
  3
Hidden (.5x) _ _ _ _ _ _ _ _ _ _ _ _ _ _ _ _ _
 72
    65
 73
     2
 40
0.1875
 49
0.125
 49
-0.0625
  0
LTYPE
  2
HIDDENX2
 70
     0
  3
Hidden (2x) ____ ____ ____ ____ ____ ____ ____
 72
    65
 73
     2
 40
0.75
 49
0.5
 49
-0.25
  0
LTYPE
  2
PHANTOM
 70
     0
  3
Phantom ______  __  __  ______  __  __  ______
 72
    65
 73
     6
 40
2.5
 49
1.25
 49
-0.25
 49
0.25
 49
-0.25
 49
0.25
 49
-0.25
  0
LTYPE
  2
PHANTOM2
 70
     0
  3
Phantom (.5x) ___ _ _ ___ _ _ ___ _ _ ___ _ _
 72
    65
 73
     6
 40
1.25
 49
0.625
 49
-0.125
 49
0.125
 49
-0.125
 49
0.125
 49
-0.125
  0
LTYPE
  2
PHANTOMX2
 70
     0
  3
Phantom (2x) ____________    ____    ____   _
 72
    65
 73
     6
 40
5.0
 49
2.5
 49
-0.5
 49
0.5
 49
-0.5
 49
0.5
 49
-0.5
  0
ENDTAB
  0
TABLE
  2
LAYER
 70
     2
  0
LAYER
  2
0
 70
     0
 62
     7
  6
CONTINUOUS
  0
LAYER
  2
ESRI_SHAPES
 70
     0
 62
     1
  6
Continuous
  0
LAYER
  2
ESRI_TEXT
 70
     0
 62
     1
  6
CONTINUOUS
  0
ENDTAB
  0
ENDSEC
  0
SECTION
  2
BLOCKS
  0
BLOCK
  8
0
  2
Block_Name
 70
     0
 10
0.0
 20
0.0
 30
0.0
  3
Block_Name
  1

  0
CIRCLE
  8
0
 10
0.0
 20
0.0
 30
0.0
 40
1.0
  0
ENDBLK
  8
0
  0
ENDSEC
  0
SECTION
  2
ENTITIES
  0
POLYLINE
  8
ESRI_SHAPES
 66
     1
 10
0.0
 20
0.0
 30
0.0
 70
     1
  0
VERTEX
  8
ESRI_SHAPES
 66
     1
 10
568699.975703
 20
5024551.806388
 30
0.0
  0
VERTEX
  8
ESRI_SHAPES
 66
     1
 10
568516.842152
 20
5024538.369476
 30
0.0
  0
VERTEX
  8
ESRI_SHAPES
 66
     1
 10
568512.019204
 20
5024982.079433
 30
0.0
  0
VERTEX
  8
ESRI_SHAPES
 66
     1
 10
568471.736587
 20
5028686.878746
 30
0.0
  0
VERTEX
  8
ESRI_SHAPES
 66
     1
 10
568700.083269
 20
5028622.398963
 30
0.0
  0
VERTEX
  8
ESRI_SHAPES
 66
     1
 10
569449.979415
 20
5028411.922284
 30
0.0
  0
VERTEX
  8
ESRI_SHAPES
 66
     1
 10
569675.949140
 20
5028348.298955
 30
0.0
  0
VERTEX
  8
ESRI_SHAPES
 66
     1
 10
569687.393428
 20
5028312.398704
 30
0.0
  0
VERTEX
  8
ESRI_SHAPES
 66
     1
 10
569704.299706
 20
5028282.068936
 30
0.0
  0
VERTEX
  8
ESRI_SHAPES
 66
     1
 10
569781.266237
 20
5028207.053027
 30
0.0
  0
VERTEX
  8
ESRI_SHAPES
 66
     1
 10
569820.724447
 20
5028148.999692
 30
0.0
  0
VERTEX
  8
ESRI_SHAPES
 66
     1
 10
569848.953985
 20
5028107.352020
 30
0.0
  0
VERTEX
  8
ESRI_SHAPES
 66
     1
 10
569869.634463
 20
5028086.813004
 30
0.0
  0
VERTEX
  8
ESRI_SHAPES
 66
     1
 10
569903.331200
 20
5028050.312387
 30
0.0
  0
VERTEX
  8
ESRI_SHAPES
 66
     1
 10
569950.445415
 20
5028002.093289
 30
0.0
  0
VERTEX
  8
ESRI_SHAPES
 66
     1
 10
569971.099729
 20
5027970.534304
 30
0.0
  0
VERTEX
  8
ESRI_SHAPES
 66
     1
 10
570006.661125
 20
5027914.134171
 30
0.0
  0
VERTEX
  8
ESRI_SHAPES
 66
     1
 10
570036.787919
 20
5027863.183784
 30
0.0
  0
VERTEX
  8
ESRI_SHAPES
 66
     1
 10
570038.631034
 20
5027818.276592
 30
0.0
  0
VERTEX
  8
ESRI_SHAPES
 66
     1
 10
570055.513572
 20
5027776.927461
 30
0.0
  0
VERTEX
  8
ESRI_SHAPES
 66
     1
 10
570078.131877
 20
5027716.569123
 30
0.0
  0
VERTEX
  8
ESRI_SHAPES
 66
     1
 10
570095.915329
 20
5027674.806274
 30
0.0
  0
VERTEX
  8
ESRI_SHAPES
 66
     1
 10
569946.596500
 20
5027300.161753
 30
0.0
  0
VERTEX
  8
ESRI_SHAPES
 66
     1
 10
569647.912954
 20
5026550.036976
 30
0.0
  0
VERTEX
  8
ESRI_SHAPES
 66
     1
 10
569450.007902
 20
5026053.225911
 30
0.0
  0
VERTEX
  8
ESRI_SHAPES
 66
     1
 10
569349.304980
 20
5025799.929645
 30
0.0
  0
VERTEX
  8
ESRI_SHAPES
 66
     1
 10
569050.469315
 20
5025050.260259
 30
0.0
  0
VERTEX
  8
ESRI_SHAPES
 66
     1
 10
569025.763302
 20
5024987.684756
 30
0.0
  0
VERTEX
  8
ESRI_SHAPES
 66
     1
 10
568879.808949
 20
5024621.159747
 30
0.0
  0
VERTEX
  8
ESRI_SHAPES
 66
     1
 10
568879.225430
 20
5024619.881844
 30
0.0
  0
VERTEX
  8
ESRI_SHAPES
 66
     1
 10
568876.452553
 20
5024613.917754
 30
0.0
  0
VERTEX
  8
ESRI_SHAPES
 66
     1
 10
568873.376334
 20
5024608.374193
 30
0.0
  0
VERTEX
  8
ESRI_SHAPES
 66
     1
 10
568870.001403
 20
5024602.827371
 30
0.0
  0
VERTEX
  8
ESRI_SHAPES
 66
     1
 10
568866.178405
 20
5024597.275655
 30
0.0
  0
VERTEX
  8
ESRI_SHAPES
 66
     1
 10
568862.052064
 20
5024592.144470
 30
0.0
  0
VERTEX
  8
ESRI_SHAPES
 66
     1
 10
568857.622380
 20
5024587.433817
 30
0.0
  0
VERTEX
  8
ESRI_SHAPES
 66
     1
 10
568852.739999
 20
5024583.142065
 30
0.0
  0
VERTEX
  8
ESRI_SHAPES
 66
     1
 10
568847.708257
 20
5024578.848685
 30
0.0
  0
VERTEX
  8
ESRI_SHAPES
 66
     1
 10
568842.373172
 20
5024574.975839
 30
0.0
  0
VERTEX
  8
ESRI_SHAPES
 66
     1
 10
568836.884099
 20
5024571.525158
 30
0.0
  0
VERTEX
  8
ESRI_SHAPES
 66
     1
 10
568831.091684
 20
5024568.495012
 30
0.0
  0
VERTEX
  8
ESRI_SHAPES
 66
     1
 10
568825.145283
 20
5024565.887032
 30
0.0
  0
VERTEX
  8
ESRI_SHAPES
 66
     1
 10
568819.044895
 20
5024563.701219
 30
0.0
  0
VERTEX
  8
ESRI_SHAPES
 66
     1
 10
568812.795150
 20
5024561.513782
 30
0.0
  0
VERTEX
  8
ESRI_SHAPES
 66
     1
 10
568806.386794
 20
5024560.172304
 30
0.0
  0
VERTEX
  8
ESRI_SHAPES
 66
     1
 10
568799.824456
 20
5024559.252993
 30
0.0
  0
VERTEX
  8
ESRI_SHAPES
 66
     1
 10
568794.158242
 20
5024558.343470
 30
0.0
  0
SEQEND
  8
ESRI_SHAPES
  0
TEXT
  8
ESRI_TEXT
 10
569078.542144
 20
5026904.617710
 30
0.0
 40
25.394424
  1
45122D13
  0
POLYLINE
  8
ESRI_SHAPES
 66
     1
 10
0.0
 20
0.0
 30
0.0
 70
     1
  0
VERTEX
  8
ESRI_SHAPES
 66
     1
 10
561847.004914
 20
5031857.490073
 30
0.0
  0
VERTEX
  8
ESRI_SHAPES
 66
     1
 10
558659.870470
 20
5031826.525088
 30
0.0
  0
VERTEX
  8
ESRI_SHAPES
 66
     1
 10
558619.415074
 20
5036161.671475
 30
0.0
  0
VERTEX
  8
ESRI_SHAPES
 66
     1
 10
558950.000122
 20
5035698.533875
 30
0.0
  0
VERTEX
  8
ESRI_SHAPES
 66
     1
 10
559056.022680
 20
5035550.000061
 30
0.0
  0
VERTEX
  8
ESRI_SHAPES
 66
     1
 10
559591.368397
 20
5034800.000000
 30
0.0
  0
VERTEX
  8
ESRI_SHAPES
 66
     1
 10
559700.000000
 20
5034647.811057
 30
0.0
  0
VERTEX
  8
ESRI_SHAPES
 66
     1
 10
560126.714138
 20
5034050.000000
 30
0.0
  0
VERTEX
  8
ESRI_SHAPES
 66
     1
 10
560438.911970
 20
5033612.622142
 30
0.0
  0
VERTEX
  8
ESRI_SHAPES
 66
     1
 10
560440.666671
 20
5033610.081833
 30
0.0
  0
VERTEX
  8
ESRI_SHAPES
 66
     1
 10
560444.122250
 20
5033604.524809
 30
0.0
  0
VERTEX
  8
ESRI_SHAPES
 66
     1
 10
560447.206984
 20
5033598.753678
 30
0.0
  0
VERTEX
  8
ESRI_SHAPES
 66
     1
 10
560449.907663
 20
5033592.793152
 30
0.0
  0
VERTEX
  8
ESRI_SHAPES
 66
     1
 10
560450.000000
 20
5033592.547819
 30
0.0
  0
VERTEX
  8
ESRI_SHAPES
 66
     1
 10
560452.212723
 20
5033586.668756
 30
0.0
  0
VERTEX
  8
ESRI_SHAPES
 66
     1
 10
560454.112293
 20
5033580.406714
 30
0.0
  0
VERTEX
  8
ESRI_SHAPES
 66
     1
 10
560455.598238
 20
5033574.033841
 30
0.0
  0
VERTEX
  8
ESRI_SHAPES
 66
     1
 10
560456.664196
 20
5033567.577428
 30
0.0
  0
VERTEX
  8
ESRI_SHAPES
 66
     1
 10
560457.305602
 20
5033561.065122
 30
0.0
  0
VERTEX
  8
ESRI_SHAPES
 66
     1
 10
560457.519710
 20
5033554.524809
 30
0.0
  0
VERTEX
  8
ESRI_SHAPES
 66
     1
 10
560457.305602
 20
5033547.984496
 30
0.0
  0
VERTEX
  8
ESRI_SHAPES
 66
     1
 10
560456.664196
 20
5033541.472190
 30
0.0
  0
VERTEX
  8
ESRI_SHAPES
 66
     1
 10
560455.598238
 20
5033535.015777
 30
0.0
  0
VERTEX
  8
ESRI_SHAPES
 66
     1
 10
560454.453335
 20
5033530.105556
 30
0.0
  0
VERTEX
  8
ESRI_SHAPES
 66
     1
 10
560577.262230
 20
5033300.000000
 30
0.0
  0
VERTEX
  8
ESRI_SHAPES
 66
     1
 10
560936.883361
 20
5032626.182196
 30
0.0
  0
VERTEX
  8
ESRI_SHAPES
 66
     1
 10
561032.843992
 20
5032550.000000
 30
0.0
  0
VERTEX
  8
ESRI_SHAPES
 66
     1
 10
561040.910206
 20
5032543.596313
 30
0.0
  0
VERTEX
  8
ESRI_SHAPES
 66
     1
 10
561035.224923
 20
5032543.122539
 30
0.0
  0
VERTEX
  8
ESRI_SHAPES
 66
     1
 10
561200.000000
 20
5032403.952882
 30
0.0
  0
SEQEND
  8
ESRI_SHAPES
  0
TEXT
  8
ESRI_TEXT
 10
559634.266506
 20
5033286.958936
 30
0.0
 40
25.394424
  1
45122D21
  0
POLYLINE
  8
ESRI_SHAPES
 66
     1
 10
0.0
 20
0.0
 30
0.0
 70
     1
  0
VERTEX
  8
ESRI_SHAPES
 66
     1
 10
563564.977314
 20
5030211.591768
 30
0.0
  0
VERTEX
  8
ESRI_SHAPES
 66
     1
 10
563617.689276
 20
5024991.999010
 30
0.0
  0
VERTEX
  8
ESRI_SHAPES
 66
     1
 10
563450.000122
 20
5025032.092529
 30
0.0
  0
VERTEX
  8
ESRI_SHAPES
 66
     1
 10
563182.810730
 20
5025078.769287
 30
0.0
  0
VERTEX
  8
ESRI_SHAPES
 66
     1
 10
563042.780090
 20
5025127.669128
 30
0.0
  0
VERTEX
  8
ESRI_SHAPES
 66
     1
 10
562933.867310
 20
5025148.784729
 30
0.0
  0
VERTEX
  8
ESRI_SHAPES
 66
     1
 10
562700.000122
 20
5025204.352478
 30
0.0
  0
VERTEX
  8
ESRI_SHAPES
 66
     1
 10
562336.898071
 20
5025289.326721
 30
0.0
  0
VERTEX
  8
ESRI_SHAPES
 66
     1
 10
561950.000061
 20
5025399.868898
 30
0.0
  0
VERTEX
  8
ESRI_SHAPES
 66
     1
 10
561861.822815
 20
5025425.062382
 30
0.0
  0
VERTEX
  8
ESRI_SHAPES
 66
     1
 10
561857.150982
 20
5025426.521763
 30
0.0
  0
VERTEX
  8
ESRI_SHAPES
 66
     1
 10
561851.026585
 20
5025428.826823
 30
0.0
  0
VERTEX
  8
ESRI_SHAPES
 66
     1
 10
561845.714073
 20
5025431.210837
 30
0.0
  0
VERTEX
  8
ESRI_SHAPES
 66
     1
 10
561200.000000
 20
5025743.872388
 30
0.0
  0
VERTEX
  8
ESRI_SHAPES
 66
     1
 10
561084.084280
 20
5025800.000000
 30
0.0
  0
VERTEX
  8
ESRI_SHAPES
 66
     1
 10
560450.000000
 20
5026107.030283
 30
0.0
  0
VERTEX
  8
ESRI_SHAPES
 66
     1
 10
559700.000000
 20
5026470.188178
 30
0.0
  0
VERTEX
  8
ESRI_SHAPES
 66
     1
 10
559535.171237
 20
5026550.000000
 30
0.0
  0
VERTEX
  8
ESRI_SHAPES
 66
     1
 10
558950.000000
 20
5026833.346073
 30
0.0
  0
VERTEX
  8
ESRI_SHAPES
 66
     1
 10
558705.312100
 20
5026951.826530
 30
0.0
  0
VERTEX
  8
ESRI_SHAPES
 66
     1
 10
558659.870470
 20
5031826.525088
 30
0.0
  0
VERTEX
  8
ESRI_SHAPES
 66
     1
 10
561847.004914
 20
5031857.490073
 30
0.0
  0
VERTEX
  8
ESRI_SHAPES
 66
     1
 10
561915.072418
 20
5031800.000000
 30
0.0
  0
VERTEX
  8
ESRI_SHAPES
 66
     1
 10
561950.000061
 20
5031770.500077
 30
0.0
  0
VERTEX
  8
ESRI_SHAPES
 66
     1
 10
562605.953308
 20
5031216.479675
 30
0.0
  0
VERTEX
  8
ESRI_SHAPES
 66
     1
 10
562630.446899
 20
5031180.926697
 30
0.0
  0
VERTEX
  8
ESRI_SHAPES
 66
     1
 10
562634.433716
 20
5031167.637512
 30
0.0
  0
VERTEX
  8
ESRI_SHAPES
 66
     1
 10
562641.078308
 20
5031130.427673
 30
0.0
  0
VERTEX
  8
ESRI_SHAPES
 66
     1
 10
562639.749329
 20
5031087.902527
 30
0.0
  0
VERTEX
  8
ESRI_SHAPES
 66
     1
 10
562639.749329
 20
5031069.297729
 30
0.0
  0
VERTEX
  8
ESRI_SHAPES
 66
     1
 10
562638.420288
 20
5031050.000122
 30
0.0
  0
VERTEX
  8
ESRI_SHAPES
 66
     1
 10
562637.091492
 20
5031017.469910
 30
0.0
  0
VERTEX
  8
ESRI_SHAPES
 66
     1
 10
562638.420288
 20
5030988.233704
 30
0.0
  0
VERTEX
  8
ESRI_SHAPES
 66
     1
 10
562647.722900
 20
5030948.366272
 30
0.0
  0
VERTEX
  8
ESRI_SHAPES
 66
     1
 10
562670.314270
 20
5030880.591675
 30
0.0
  0
VERTEX
  8
ESRI_SHAPES
 66
     1
 10
562700.000122
 20
5030812.816895
 30
0.0
  0
VERTEX
  8
ESRI_SHAPES
 66
     1
 10
562724.799927
 20
5030764.975891
 30
0.0
  0
VERTEX
  8
ESRI_SHAPES
 66
     1
 10
562750.049316
 20
5030698.530090
 30
0.0
  0
VERTEX
  8
ESRI_SHAPES
 66
     1
 10
562765.996277
 20
5030649.360291
 30
0.0
  0
VERTEX
  8
ESRI_SHAPES
 66
     1
 10
562795.232483
 20
5030596.203491
 30
0.0
  0
VERTEX
  8
ESRI_SHAPES
 66
     1
 10
562816.495117
 20
5030541.718079
 30
0.0
  0
VERTEX
  8
ESRI_SHAPES
 66
     1
 10
562827.126526
 20
5030517.797485
 30
0.0
  0
VERTEX
  8
ESRI_SHAPES
 66
     1
 10
562856.362488
 20
5030481.916687
 30
0.0
  0
VERTEX
  8
ESRI_SHAPES
 66
     1
 10
562925.466309
 20
5030415.470886
 30
0.0
  0
VERTEX
  8
ESRI_SHAPES
 66
     1
 10
562957.360291
 20
5030388.892700
 30
0.0
  0
VERTEX
  8
ESRI_SHAPES
 66
     1
 10
562994.569885
 20
5030371.616699
 30
0.0
  0
VERTEX
  8
ESRI_SHAPES
 66
     1
 10
563046.397705
 20
5030351.683105
 30
0.0
  0
VERTEX
  8
ESRI_SHAPES
 66
     1
 10
563086.265076
 20
5030346.367310
 30
0.0
  0
VERTEX
  8
ESRI_SHAPES
 66
     1
 10
563132.777100
 20
5030335.736084
 30
0.0
  0
VERTEX
  8
ESRI_SHAPES
 66
     1
 10
563181.947083
 20
5030322.446899
 30
0.0
  0
VERTEX
  8
ESRI_SHAPES
 66
     1
 10
563261.681885
 20
5030300.000122
 30
0.0
  0
VERTEX
  8
ESRI_SHAPES
 66
     1
 10
563314.838684
 20
5030279.921509
 30
0.0
  0
VERTEX
  8
ESRI_SHAPES
 66
     1
 10
563361.350708
 20
5030270.619080
 30
0.0
  0
VERTEX
  8
ESRI_SHAPES
 66
     1
 10
563413.178284
 20
5030253.343323
 30
0.0
  0
VERTEX
  8
ESRI_SHAPES
 66
     1
 10
563450.000122
 20
5030241.382874
 30
0.0
  0
VERTEX
  8
ESRI_SHAPES
 66
     1
 10
563558.030273
 20
5030213.475708
 30
0.0
  0
SEQEND
  8
ESRI_SHAPES
  0
TEXT
  8
ESRI_TEXT
 10
561175.973004
 20
5028673.151247
 30
0.0
 40
25.394424
  1
45122D23
  0
POLYLINE
  8
ESRI_SHAPES
 66
     1
 10
0.0
 20
0.0
 30
0.0
 70
     1
  0
VERTEX
  8
ESRI_SHAPES
 66
     1
 10
566450.094068
 20
5024386.549752
 30
0.0
  0
VERTEX
  8
ESRI_SHAPES
 66
     1
 10
566035.896921
 20
5024356.343237
 30
0.0
  0
VERTEX
  8
ESRI_SHAPES
 66
     1
 10
565785.698824
 20
5024427.475119
 30
0.0
  0
VERTEX
  8
ESRI_SHAPES
 66
     1
 10
565699.966458
 20
5024455.401990
 30
0.0
  0
VERTEX
  8
ESRI_SHAPES
 66
     1
 10
565495.597962
 20
5024501.168973
 30
0.0
  0
VERTEX
  8
ESRI_SHAPES
 66
     1
 10
565123.334173
 20
5024590.980156
 30
0.0
  0
VERTEX
  8
ESRI_SHAPES
 66
     1
 10
564950.021373
 20
5024624.370475
 30
0.0
  0
VERTEX
  8
ESRI_SHAPES
 66
     1
 10
564740.899455
 20
5024683.251663
 30
0.0
  0
VERTEX
  8
ESRI_SHAPES
 66
     1
 10
564555.439461
 20
5024736.448295
 30
0.0
  0
VERTEX
  8
ESRI_SHAPES
 66
     1
 10
564444.232497
 20
5024773.455604
 30
0.0
  0
VERTEX
  8
ESRI_SHAPES
 66
     1
 10
564345.381504
 20
5024799.995072
 30
0.0
  0
VERTEX
  8
ESRI_SHAPES
 66
     1
 10
564238.680773
 20
5024820.098531
 30
0.0
  0
VERTEX
  8
ESRI_SHAPES
 66
     1
 10
564200.082766
 20
5024840.897070
 30
0.0
  0
VERTEX
  8
ESRI_SHAPES
 66
     1
 10
564153.011114
 20
5024857.795068
 30
0.0
  0
VERTEX
  8
ESRI_SHAPES
 66
     1
 10
563934.060999
 20
5024915.331201
 30
0.0
  0
VERTEX
  8
ESRI_SHAPES
 66
     1
 10
563861.290553
 20
5024933.242237
 30
0.0
  0
VERTEX
  8
ESRI_SHAPES
 66
     1
 10
563719.646728
 20
5024967.834694
 30
0.0
  0
VERTEX
  8
ESRI_SHAPES
 66
     1
 10
563617.687226
 20
5024992.234857
 30
0.0
  0
VERTEX
  8
ESRI_SHAPES
 66
     1
 10
563564.983305
 20
5030211.678370
 30
0.0
  0
VERTEX
  8
ESRI_SHAPES
 66
     1
 10
563714.925611
 20
5030171.234780
 30
0.0
  0
VERTEX
  8
ESRI_SHAPES
 66
     1
 10
563920.803417
 20
5030119.071335
 30
0.0
  0
VERTEX
  8
ESRI_SHAPES
 66
     1
 10
564084.351177
 20
5030076.655482
 30
0.0
  0
VERTEX
  8
ESRI_SHAPES
 66
     1
 10
564200.037312
 20
5030044.775193
 30
0.0
  0
VERTEX
  8
ESRI_SHAPES
 66
     1
 10
564241.075878
 20
5030030.359624
 30
0.0
  0
VERTEX
  8
ESRI_SHAPES
 66
     1
 10
564315.575432
 20
5030012.895496
 30
0.0
  0
VERTEX
  8
ESRI_SHAPES
 66
     1
 10
564565.459101
 20
5029963.745887
 30
0.0
  0
VERTEX
  8
ESRI_SHAPES
 66
     1
 10
564758.145184
 20
5029918.679521
 30
0.0
  0
VERTEX
  8
ESRI_SHAPES
 66
     1
 10
564949.982509
 20
5029869.371838
 30
0.0
  0
VERTEX
  8
ESRI_SHAPES
 66
     1
 10
565083.733748
 20
5029837.694104
 30
0.0
  0
VERTEX
  8
ESRI_SHAPES
 66
     1
 10
565326.823577
 20
5029782.994284
 30
0.0
  0
VERTEX
  8
ESRI_SHAPES
 66
     1
 10
565495.037691
 20
5029752.954566
 30
0.0
  0
VERTEX
  8
ESRI_SHAPES
 66
     1
 10
565700.100646
 20
5029667.356839
 30
0.0
  0
VERTEX
  8
ESRI_SHAPES
 66
     1
 10
565979.531703
 20
5029549.909077
 30
0.0
  0
VERTEX
  8
ESRI_SHAPES
 66
     1
 10
566449.961837
 20
5029353.109434
 30
0.0
  0
VERTEX
  8
ESRI_SHAPES
 66
     1
 10
567164.364746
 20
5029053.829857
 30
0.0
  0
VERTEX
  8
ESRI_SHAPES
 66
     1
 10
567199.994199
 20
5029044.037887
 30
0.0
  0
VERTEX
  8
ESRI_SHAPES
 66
     1
 10
567950.085125
 20
5028833.386676
 30
0.0
  0
VERTEX
  8
ESRI_SHAPES
 66
     1
 10
568067.922816
 20
5028799.904497
 30
0.0
  0
VERTEX
  8
ESRI_SHAPES
 66
     1
 10
568471.736587
 20
5028686.878746
 30
0.0
  0
VERTEX
  8
ESRI_SHAPES
 66
     1
 10
568512.019204
 20
5024982.079433
 30
0.0
  0
VERTEX
  8
ESRI_SHAPES
 66
     1
 10
568516.842152
 20
5024538.369476
 30
0.0
  0
VERTEX
  8
ESRI_SHAPES
 66
     1
 10
567949.976600
 20
5024496.630951
 30
0.0
  0
VERTEX
  8
ESRI_SHAPES
 66
     1
 10
567199.966269
 20
5024441.544881
 30
0.0
  0
SEQEND
  8
ESRI_SHAPES
  0
TEXT
  8
ESRI_TEXT
 10
565946.470352
 20
5027040.601896
 30
0.0
 40
25.394424
  1
45122D24
  0
POLYLINE
  8
ESRI_SHAPES
 66
     1
 10
0.0
 20
0.0
 30
0.0
 70
     1
  0
VERTEX
  8
ESRI_SHAPES
 66
     1
 10
548766.868322
 20
5046696.619982
 30
0.0
  0
VERTEX
  8
ESRI_SHAPES
 66
     1
 10
548775.180186
 20
5045630.061878
 30
0.0
  0
VERTEX
  8
ESRI_SHAPES
 66
     1
 10
545486.156261
 20
5045605.724668
 30
0.0
  0
VERTEX
  8
ESRI_SHAPES
 66
     1
 10
545450.000000
 20
5045655.941698
 30
0.0
  0
VERTEX
  8
ESRI_SHAPES
 66
     1
 10
545166.278023
 20
5046050.000000
 30
0.0
  0
VERTEX
  8
ESRI_SHAPES
 66
     1
 10
544720.337949
 20
5046669.361213
 30
0.0
  0
VERTEX
  8
ESRI_SHAPES
 66
     1
 10
544718.344422
 20
5046672.234662
 30
0.0
  0
VERTEX
  8
ESRI_SHAPES
 66
     1
 10
544714.888843
 20
5046677.791685
 30
0.0
  0
VERTEX
  8
ESRI_SHAPES
 66
     1
 10
544711.804109
 20
5046683.562816
 30
0.0
  0
VERTEX
  8
ESRI_SHAPES
 66
     1
 10
544709.103430
 20
5046689.523342
 30
0.0
  0
VERTEX
  8
ESRI_SHAPES
 66
     1
 10
544706.798371
 20
5046695.647739
 30
0.0
  0
VERTEX
  8
ESRI_SHAPES
 66
     1
 10
544704.898801
 20
5046701.909781
 30
0.0
  0
VERTEX
  8
ESRI_SHAPES
 66
     1
 10
544703.412856
 20
5046708.282653
 30
0.0
  0
VERTEX
  8
ESRI_SHAPES
 66
     1
 10
544702.346897
 20
5046714.739066
 30
0.0
  0
VERTEX
  8
ESRI_SHAPES
 66
     1
 10
544701.705491
 20
5046721.251372
 30
0.0
  0
VERTEX
  8
ESRI_SHAPES
 66
     1
 10
544701.491384
 20
5046727.791685
 30
0.0
  0
VERTEX
  8
ESRI_SHAPES
 66
     1
 10
544701.705491
 20
5046734.331998
 30
0.0
  0
VERTEX
  8
ESRI_SHAPES
 66
     1
 10
544702.346897
 20
5046740.844304
 30
0.0
  0
VERTEX
  8
ESRI_SHAPES
 66
     1
 10
544703.412856
 20
5046747.300717
 30
0.0
  0
VERTEX
  8
ESRI_SHAPES
 66
     1
 10
544704.898801
 20
5046753.673590
 30
0.0
  0
VERTEX
  8
ESRI_SHAPES
 66
     1
 10
544706.798371
 20
5046759.935632
 30
0.0
  0
VERTEX
  8
ESRI_SHAPES
 66
     1
 10
544709.103430
 20
5046766.060028
 30
0.0
  0
VERTEX
  8
ESRI_SHAPES
 66
     1
 10
544711.804109
 20
5046772.020554
 30
0.0
  0
VERTEX
  8
ESRI_SHAPES
 66
     1
 10
544714.888843
 20
5046777.791685
 30
0.0
  0
VERTEX
  8
ESRI_SHAPES
 66
     1
 10
544718.344422
 20
5046783.348708
 30
0.0
  0
VERTEX
  8
ESRI_SHAPES
 66
     1
 10
544722.156050
 20
5046788.667828
 30
0.0
  0
VERTEX
  8
ESRI_SHAPES
 66
     1
 10
544726.307403
 20
5046793.726267
 30
0.0
  0
VERTEX
  8
ESRI_SHAPES
 66
     1
 10
544730.780706
 20
5046798.502363
 30
0.0
  0
VERTEX
  8
ESRI_SHAPES
 66
     1
 10
544732.379716
 20
5046800.000000
 30
0.0
  0
VERTEX
  8
ESRI_SHAPES
 66
     1
 10
544735.556802
 20
5046802.975666
 30
0.0
  0
VERTEX
  8
ESRI_SHAPES
 66
     1
 10
544740.615241
 20
5046807.127019
 30
0.0
  0
VERTEX
  8
ESRI_SHAPES
 66
     1
 10
544745.934360
 20
5046810.938646
 30
0.0
  0
VERTEX
  8
ESRI_SHAPES
 66
     1
 10
544751.491384
 20
5046814.394226
 30
0.0
  0
VERTEX
  8
ESRI_SHAPES
 66
     1
 10
544757.262515
 20
5046817.478959
 30
0.0
  0
VERTEX
  8
ESRI_SHAPES
 66
     1
 10
544763.223040
 20
5046820.179638
 30
0.0
  0
VERTEX
  8
ESRI_SHAPES
 66
     1
 10
544769.347437
 20
5046822.484698
 30
0.0
  0
VERTEX
  8
ESRI_SHAPES
 66
     1
 10
544775.609479
 20
5046824.384268
 30
0.0
  0
VERTEX
  8
ESRI_SHAPES
 66
     1
 10
544781.982351
 20
5046825.870213
 30
0.0
  0
VERTEX
  8
ESRI_SHAPES
 66
     1
 10
544788.438764
 20
5046826.936171
 30
0.0
  0
VERTEX
  8
ESRI_SHAPES
 66
     1
 10
544789.709610
 20
5046827.095209
 30
0.0
  0
VERTEX
  8
ESRI_SHAPES
 66
     1
 10
545450.000000
 20
5046905.434747
 30
0.0
  0
VERTEX
  8
ESRI_SHAPES
 66
     1
 10
546200.000000
 20
5046994.417797
 30
0.0
  0
VERTEX
  8
ESRI_SHAPES
 66
     1
 10
546798.037118
 20
5047065.371354
 30
0.0
  0
VERTEX
  8
ESRI_SHAPES
 66
     1
 10
546803.278579
 20
5047065.853723
 30
0.0
  0
VERTEX
  8
ESRI_SHAPES
 66
     1
 10
546809.818892
 20
5047066.067830
 30
0.0
  0
VERTEX
  8
ESRI_SHAPES
 66
     1
 10
546816.359205
 20
5047065.853723
 30
0.0
  0
VERTEX
  8
ESRI_SHAPES
 66
     1
 10
546822.871511
 20
5047065.212316
 30
0.0
  0
VERTEX
  8
ESRI_SHAPES
 66
     1
 10
546828.455480
 20
5047064.315871
 30
0.0
  0
VERTEX
  8
ESRI_SHAPES
 66
     1
 10
546950.000000
 20
5047041.260194
 30
0.0
  0
VERTEX
  8
ESRI_SHAPES
 66
     1
 10
547700.000000
 20
5046898.993329
 30
0.0
  0
VERTEX
  8
ESRI_SHAPES
 66
     1
 10
548221.871324
 20
5046800.000000
 30
0.0
  0
VERTEX
  8
ESRI_SHAPES
 66
     1
 10
548450.000000
 20
5046756.726465
 30
0.0
  0
SEQEND
  8
ESRI_SHAPES
  0
TEXT
  8
ESRI_TEXT
 10
546854.565948
 20
5046293.677013
 30
0.0
 40
25.394424
  1
45122E42
  0
POLYLINE
  8
ESRI_SHAPES
 66
     1
 10
0.0
 20
0.0
 30
0.0
 70
     1
  0
VERTEX
  8
ESRI_SHAPES
 66
     1
 10
548826.862962
 20
5038991.156738
 30
0.0
  0
VERTEX
  8
ESRI_SHAPES
 66
     1
 10
548450.000061
 20
5039187.125475
 30
0.0
  0
VERTEX
  8
ESRI_SHAPES
 66
     1
 10
548232.933716
 20
5039300.000122
 30
0.0
  0
VERTEX
  8
ESRI_SHAPES
 66
     1
 10
548193.340515
 20
5039320.588501
 30
0.0
  0
VERTEX
  8
ESRI_SHAPES
 66
     1
 10
548189.475891
 20
5039322.707520
 30
0.0
  0
VERTEX
  8
ESRI_SHAPES
 66
     1
 10
548183.918884
 20
5039326.163086
 30
0.0
  0
VERTEX
  8
ESRI_SHAPES
 66
     1
 10
548178.599670
 20
5039329.974670
 30
0.0
  0
VERTEX
  8
ESRI_SHAPES
 66
     1
 10
548173.541321
 20
5039334.126099
 30
0.0
  0
VERTEX
  8
ESRI_SHAPES
 66
     1
 10
548168.765076
 20
5039338.599487
 30
0.0
  0
VERTEX
  8
ESRI_SHAPES
 66
     1
 10
548164.291870
 20
5039343.375488
 30
0.0
  0
VERTEX
  8
ESRI_SHAPES
 66
     1
 10
548160.140503
 20
5039348.434082
 30
0.0
  0
VERTEX
  8
ESRI_SHAPES
 66
     1
 10
548156.328918
 20
5039353.753113
 30
0.0
  0
VERTEX
  8
ESRI_SHAPES
 66
     1
 10
548152.873291
 20
5039359.310120
 30
0.0
  0
VERTEX
  8
ESRI_SHAPES
 66
     1
 10
548149.788513
 20
5039365.081299
 30
0.0
  0
VERTEX
  8
ESRI_SHAPES
 66
     1
 10
548149.207886
 20
5039366.278931
 30
0.0
  0
VERTEX
  8
ESRI_SHAPES
 66
     1
 10
547823.274420
 20
5040050.000061
 30
0.0
  0
VERTEX
  8
ESRI_SHAPES
 66
     1
 10
547700.000000
 20
5040308.596670
 30
0.0
  0
VERTEX
  8
ESRI_SHAPES
 66
     1
 10
547465.745502
 20
5040800.000000
 30
0.0
  0
VERTEX
  8
ESRI_SHAPES
 66
     1
 10
547127.124935
 20
5041510.335448
 30
0.0
  0
VERTEX
  8
ESRI_SHAPES
 66
     1
 10
547125.004992
 20
5041515.098330
 30
0.0
  0
VERTEX
  8
ESRI_SHAPES
 66
     1
 10
547122.699932
 20
5041521.222727
 30
0.0
  0
VERTEX
  8
ESRI_SHAPES
 66
     1
 10
547120.800362
 20
5041527.484769
 30
0.0
  0
VERTEX
  8
ESRI_SHAPES
 66
     1
 10
547119.314417
 20
5041533.857641
 30
0.0
  0
VERTEX
  8
ESRI_SHAPES
 66
     1
 10
547118.248459
 20
5041540.314054
 30
0.0
  0
VERTEX
  8
ESRI_SHAPES
 66
     1
 10
547117.607053
 20
5041546.826361
 30
0.0
  0
VERTEX
  8
ESRI_SHAPES
 66
     1
 10
547117.503159
 20
5041550.000000
 30
0.0
  0
VERTEX
  8
ESRI_SHAPES
 66
     1
 10
547117.392945
 20
5041553.366674
 30
0.0
  0
VERTEX
  8
ESRI_SHAPES
 66
     1
 10
547117.607053
 20
5041559.906987
 30
0.0
  0
VERTEX
  8
ESRI_SHAPES
 66
     1
 10
547118.248459
 20
5041566.419293
 30
0.0
  0
VERTEX
  8
ESRI_SHAPES
 66
     1
 10
547119.314417
 20
5041572.875706
 30
0.0
  0
VERTEX
  8
ESRI_SHAPES
 66
     1
 10
547120.800362
 20
5041579.248578
 30
0.0
  0
VERTEX
  8
ESRI_SHAPES
 66
     1
 10
547122.699932
 20
5041585.510620
 30
0.0
  0
VERTEX
  8
ESRI_SHAPES
 66
     1
 10
547125.004992
 20
5041591.635017
 30
0.0
  0
VERTEX
  8
ESRI_SHAPES
 66
     1
 10
547127.705671
 20
5041597.595543
 30
0.0
  0
VERTEX
  8
ESRI_SHAPES
 66
     1
 10
547130.602855
 20
5041603.040411
 30
0.0
  0
VERTEX
  8
ESRI_SHAPES
 66
     1
 10
547517.169676
 20
5042278.451020
 30
0.0
  0
VERTEX
  8
ESRI_SHAPES
 66
     1
 10
547509.523264
 20
5042300.000000
 30
0.0
  0
VERTEX
  8
ESRI_SHAPES
 66
     1
 10
547243.394260
 20
5043050.000061
 30
0.0
  0
VERTEX
  8
ESRI_SHAPES
 66
     1
 10
547162.853516
 20
5043276.978699
 30
0.0
  0
VERTEX
  8
ESRI_SHAPES
 66
     1
 10
546950.000122
 20
5043572.608276
 30
0.0
  0
VERTEX
  8
ESRI_SHAPES
 66
     1
 10
546786.278050
 20
5043800.000061
 30
0.0
  0
VERTEX
  8
ESRI_SHAPES
 66
     1
 10
546246.278023
 20
5044550.000000
 30
0.0
  0
VERTEX
  8
ESRI_SHAPES
 66
     1
 10
546200.000000
 20
5044614.275031
 30
0.0
  0
VERTEX
  8
ESRI_SHAPES
 66
     1
 10
545706.278023
 20
5045300.000000
 30
0.0
  0
VERTEX
  8
ESRI_SHAPES
 66
     1
 10
545486.156261
 20
5045605.724668
 30
0.0
  0
VERTEX
  8
ESRI_SHAPES
 66
     1
 10
548775.180186
 20
5045630.061878
 30
0.0
  0
SEQEND
  8
ESRI_SHAPES
  0
TEXT
  8
ESRI_TEXT
 10
547806.958854
 20
5043084.396165
 30
0.0
 40
25.394424
  1
45122E44
  0
POLYLINE
  8
ESRI_SHAPES
 66
     1
 10
0.0
 20
0.0
 30
0.0
 70
     1
  0
VERTEX
  8
ESRI_SHAPES
 66
     1
 10
558619.415074
 20
5036161.671475
 30
0.0
  0
VERTEX
  8
ESRI_SHAPES
 66
     1
 10
558659.870470
 20
5031826.525088
 30
0.0
  0
VERTEX
  8
ESRI_SHAPES
 66
     1
 10
556917.242678
 20
5031810.948985
 30
0.0
  0
VERTEX
  8
ESRI_SHAPES
 66
     1
 10
556700.000000
 20
5032048.277044
 30
0.0
  0
VERTEX
  8
ESRI_SHAPES
 66
     1
 10
556240.738507
 20
5032550.000000
 30
0.0
  0
VERTEX
  8
ESRI_SHAPES
 66
     1
 10
555950.000000
 20
5032867.619015
 30
0.0
  0
VERTEX
  8
ESRI_SHAPES
 66
     1
 10
555554.211978
 20
5033300.000000
 30
0.0
  0
VERTEX
  8
ESRI_SHAPES
 66
     1
 10
555512.650558
 20
5033345.404020
 30
0.0
  0
VERTEX
  8
ESRI_SHAPES
 66
     1
 10
555094.981653
 20
5034050.000000
 30
0.0
  0
VERTEX
  8
ESRI_SHAPES
 66
     1
 10
554650.398250
 20
5034800.000000
 30
0.0
  0
VERTEX
  8
ESRI_SHAPES
 66
     1
 10
554450.000000
 20
5035054.891216
 30
0.0
  0
VERTEX
  8
ESRI_SHAPES
 66
     1
 10
554060.740083
 20
5035550.000000
 30
0.0
  0
VERTEX
  8
ESRI_SHAPES
 66
     1
 10
553735.790572
 20
5035963.310918
 30
0.0
  0
VERTEX
  8
ESRI_SHAPES
 66
     1
 10
553712.154903
 20
5038726.354623
 30
0.0
  0
VERTEX
  8
ESRI_SHAPES
 66
     1
 10
556769.233502
 20
5038753.709000
 30
0.0
  0
VERTEX
  8
ESRI_SHAPES
 66
     1
 10
556914.639700
 20
5038550.000061
 30
0.0
  0
VERTEX
  8
ESRI_SHAPES
 66
     1
 10
557449.985432
 20
5037800.000000
 30
0.0
  0
VERTEX
  8
ESRI_SHAPES
 66
     1
 10
557450.000000
 20
5037799.979590
 30
0.0
  0
VERTEX
  8
ESRI_SHAPES
 66
     1
 10
557985.331173
 20
5037050.000000
 30
0.0
  0
VERTEX
  8
ESRI_SHAPES
 66
     1
 10
558200.000000
 20
5036749.256746
 30
0.0
  0
VERTEX
  8
ESRI_SHAPES
 66
     1
 10
558520.676897
 20
5036300.000061
 30
0.0
  0
SEQEND
  8
ESRI_SHAPES
  0
TEXT
  8
ESRI_TEXT
 10
556367.292255
 20
5035546.921747
 30
0.0
 40
25.394424
  1
45122D32
  0
POLYLINE
  8
ESRI_SHAPES
 66
     1
 10
0.0
 20
0.0
 30
0.0
 70
     1
  0
VERTEX
  8
ESRI_SHAPES
 66
     1
 10
553735.790572
 20
5035963.310918
 30
0.0
  0
VERTEX
  8
ESRI_SHAPES
 66
     1
 10
553700.000061
 20
5036008.833710
 30
0.0
  0
VERTEX
  8
ESRI_SHAPES
 66
     1
 10
553471.081909
 20
5036300.000122
 30
0.0
  0
VERTEX
  8
ESRI_SHAPES
 66
     1
 10
552950.000122
 20
5036962.776306
 30
0.0
  0
VERTEX
  8
ESRI_SHAPES
 66
     1
 10
552881.423820
 20
5037050.000061
 30
0.0
  0
VERTEX
  8
ESRI_SHAPES
 66
     1
 10
552663.520276
 20
5037327.156522
 30
0.0
  0
VERTEX
  8
ESRI_SHAPES
 66
     1
 10
552200.000061
 20
5037644.999041
 30
0.0
  0
VERTEX
  8
ESRI_SHAPES
 66
     1
 10
551973.956909
 20
5037800.000122
 30
0.0
  0
VERTEX
  8
ESRI_SHAPES
 66
     1
 10
551450.000061
 20
5038159.284720
 30
0.0
  0
VERTEX
  8
ESRI_SHAPES
 66
     1
 10
550880.206870
 20
5038550.000000
 30
0.0
  0
VERTEX
  8
ESRI_SHAPES
 66
     1
 10
550700.000000
 20
5038673.570425
 30
0.0
  0
VERTEX
  8
ESRI_SHAPES
 66
     1
 10
550659.394227
 20
5038701.414383
 30
0.0
  0
VERTEX
  8
ESRI_SHAPES
 66
     1
 10
553712.154903
 20
5038726.354623
 30
0.0
  0
SEQEND
  8
ESRI_SHAPES
  0
TEXT
  8
ESRI_TEXT
 10
552763.811053
 20
5037878.905573
 30
0.0
 40
25.394424
  1
45122D31
  0
POLYLINE
  8
ESRI_SHAPES
 66
     1
 10
0.0
 20
0.0
 30
0.0
 70
     1
  0
VERTEX
  8
ESRI_SHAPES
 66
     1
 10
558705.312100
 20
5026951.826530
 30
0.0
  0
VERTEX
  8
ESRI_SHAPES
 66
     1
 10
558616.213959
 20
5026994.968787
 30
0.0
  0
VERTEX
  8
ESRI_SHAPES
 66
     1
 10
558200.000061
 20
5027150.028911
 30
0.0
  0
VERTEX
  8
ESRI_SHAPES
 66
     1
 10
557797.446106
 20
5027300.000122
 30
0.0
  0
VERTEX
  8
ESRI_SHAPES
 66
     1
 10
557450.000061
 20
5027429.440664
 30
0.0
  0
VERTEX
  8
ESRI_SHAPES
 66
     1
 10
556884.624429
 20
5027640.070769
 30
0.0
  0
VERTEX
  8
ESRI_SHAPES
 66
     1
 10
556881.266988
 20
5027641.391027
 30
0.0
  0
VERTEX
  8
ESRI_SHAPES
 66
     1
 10
556875.306462
 20
5027644.091706
 30
0.0
  0
VERTEX
  8
ESRI_SHAPES
 66
     1
 10
556869.535331
 20
5027647.176440
 30
0.0
  0
VERTEX
  8
ESRI_SHAPES
 66
     1
 10
556863.978308
 20
5027650.632019
 30
0.0
  0
VERTEX
  8
ESRI_SHAPES
 66
     1
 10
556858.659189
 20
5027654.443646
 30
0.0
  0
VERTEX
  8
ESRI_SHAPES
 66
     1
 10
556853.600750
 20
5027658.595000
 30
0.0
  0
VERTEX
  8
ESRI_SHAPES
 66
     1
 10
556848.824653
 20
5027663.068302
 30
0.0
  0
VERTEX
  8
ESRI_SHAPES
 66
     1
 10
556844.351351
 20
5027667.844399
 30
0.0
  0
VERTEX
  8
ESRI_SHAPES
 66
     1
 10
556840.199997
 20
5027672.902837
 30
0.0
  0
VERTEX
  8
ESRI_SHAPES
 66
     1
 10
556836.388370
 20
5027678.221957
 30
0.0
  0
VERTEX
  8
ESRI_SHAPES
 66
     1
 10
556832.932791
 20
5027683.778980
 30
0.0
  0
VERTEX
  8
ESRI_SHAPES
 66
     1
 10
556829.848057
 20
5027689.550111
 30
0.0
  0
VERTEX
  8
ESRI_SHAPES
 66
     1
 10
556827.147378
 20
5027695.510637
 30
0.0
  0
VERTEX
  8
ESRI_SHAPES
 66
     1
 10
556826.148825
 20
5027698.016426
 30
0.0
  0
VERTEX
  8
ESRI_SHAPES
 66
     1
 10
556700.000000
 20
5028027.427961
 30
0.0
  0
VERTEX
  8
ESRI_SHAPES
 66
     1
 10
556691.355991
 20
5028050.000000
 30
0.0
  0
VERTEX
  8
ESRI_SHAPES
 66
     1
 10
556408.386990
 20
5028788.914956
 30
0.0
  0
VERTEX
  8
ESRI_SHAPES
 66
     1
 10
556407.080484
 20
5028792.533565
 30
0.0
  0
VERTEX
  8
ESRI_SHAPES
 66
     1
 10
556405.180914
 20
5028798.795607
 30
0.0
  0
VERTEX
  8
ESRI_SHAPES
 66
     1
 10
556404.900089
 20
5028800.000000
 30
0.0
  0
VERTEX
  8
ESRI_SHAPES
 66
     1
 10
556403.694969
 20
5028805.168479
 30
0.0
  0
VERTEX
  8
ESRI_SHAPES
 66
     1
 10
556402.629011
 20
5028811.624892
 30
0.0
  0
VERTEX
  8
ESRI_SHAPES
 66
     1
 10
556401.987605
 20
5028818.137198
 30
0.0
  0
VERTEX
  8
ESRI_SHAPES
 66
     1
 10
556401.780384
 20
5028823.503896
 30
0.0
  0
VERTEX
  8
ESRI_SHAPES
 66
     1
 10
556393.253531
 20
5029550.000000
 30
0.0
  0
VERTEX
  8
ESRI_SHAPES
 66
     1
 10
556409.564433
 20
5029603.444203
 30
0.0
  0
VERTEX
  8
ESRI_SHAPES
 66
     1
 10
556423.698754
 20
5029656.055286
 30
0.0
  0
VERTEX
  8
ESRI_SHAPES
 66
     1
 10
556440.188795
 20
5029712.592569
 30
0.0
  0
VERTEX
  8
ESRI_SHAPES
 66
     1
 10
556458.249316
 20
5029773.056052
 30
0.0
  0
VERTEX
  8
ESRI_SHAPES
 66
     1
 10
556467.672196
 20
5029813.888534
 30
0.0
  0
VERTEX
  8
ESRI_SHAPES
 66
     1
 10
556462.960756
 20
5029849.224336
 30
0.0
  0
VERTEX
  8
ESRI_SHAPES
 66
     1
 10
556437.047835
 20
5029907.332099
 30
0.0
  0
VERTEX
  8
ESRI_SHAPES
 66
     1
 10
556397.785832
 20
5029980.359423
 30
0.0
  0
VERTEX
  8
ESRI_SHAPES
 66
     1
 10
556387.577712
 20
5030005.290794
 30
0.0
  0
VERTEX
  8
ESRI_SHAPES
 66
     1
 10
556384.450815
 20
5030300.000000
 30
0.0
  0
VERTEX
  8
ESRI_SHAPES
 66
     1
 10
556377.029378
 20
5030932.313599
 30
0.0
  0
VERTEX
  8
ESRI_SHAPES
 66
     1
 10
556377.022491
 20
5030933.487214
 30
0.0
  0
VERTEX
  8
ESRI_SHAPES
 66
     1
 10
556377.236598
 20
5030940.027527
 30
0.0
  0
VERTEX
  8
ESRI_SHAPES
 66
     1
 10
556377.878005
 20
5030946.539833
 30
0.0
  0
VERTEX
  8
ESRI_SHAPES
 66
     1
 10
556378.943963
 20
5030952.996246
 30
0.0
  0
VERTEX
  8
ESRI_SHAPES
 66
     1
 10
556380.429908
 20
5030959.369118
 30
0.0
  0
VERTEX
  8
ESRI_SHAPES
 66
     1
 10
556382.329478
 20
5030965.631160
 30
0.0
  0
VERTEX
  8
ESRI_SHAPES
 66
     1
 10
556384.634537
 20
5030971.755557
 30
0.0
  0
VERTEX
  8
ESRI_SHAPES
 66
     1
 10
556387.335217
 20
5030977.716083
 30
0.0
  0
VERTEX
  8
ESRI_SHAPES
 66
     1
 10
556390.419950
 20
5030983.487214
 30
0.0
  0
VERTEX
  8
ESRI_SHAPES
 66
     1
 10
556393.474592
 20
5030988.439454
 30
0.0
  0
VERTEX
  8
ESRI_SHAPES
 66
     1
 10
556433.965017
 20
5031050.000000
 30
0.0
  0
VERTEX
  8
ESRI_SHAPES
 66
     1
 10
556700.000000
 20
5031454.472389
 30
0.0
  0
VERTEX
  8
ESRI_SHAPES
 66
     1
 10
556927.265036
 20
5031800.000000
 30
0.0
  0
VERTEX
  8
ESRI_SHAPES
 66
     1
 10
556917.242678
 20
5031810.948985
 30
0.0
  0
VERTEX
  8
ESRI_SHAPES
 66
     1
 10
558659.870470
 20
5031826.525088
 30
0.0
  0
SEQEND
  8
ESRI_SHAPES
  0
TEXT
  8
ESRI_TEXT
 10
557623.973806
 20
5029581.986439
 30
0.0
 40
25.394424
  1
45122D34
  0
POLYLINE
  8
ESRI_SHAPES
 66
     1
 10
0.0
 20
0.0
 30
0.0
 70
     1
  0
VERTEX
  8
ESRI_SHAPES
 66
     1
 10
548766.872466
 20
5046696.570505
 30
0.0
  0
VERTEX
  8
ESRI_SHAPES
 66
     1
 10
548911.007688
 20
5046669.298238
 30
0.0
  0
VERTEX
  8
ESRI_SHAPES
 66
     1
 10
548911.900639
 20
5046669.305215
 30
0.0
  0
VERTEX
  8
ESRI_SHAPES
 66
     1
 10
548918.313372
 20
5046667.659993
 30
0.0
  0
VERTEX
  8
ESRI_SHAPES
 66
     1
 10
548924.577283
 20
5046666.013615
 30
0.0
  0
VERTEX
  8
ESRI_SHAPES
 66
     1
 10
548930.698998
 20
5046663.518466
 30
0.0
  0
VERTEX
  8
ESRI_SHAPES
 66
     1
 10
548936.671891
 20
5046661.022160
 30
0.0
  0
VERTEX
  8
ESRI_SHAPES
 66
     1
 10
548942.353766
 20
5046657.675919
 30
0.0
  0
VERTEX
  8
ESRI_SHAPES
 66
     1
 10
548947.886821
 20
5046654.328520
 30
0.0
  0
VERTEX
  8
ESRI_SHAPES
 66
     1
 10
548953.274370
 20
5046650.556155
 30
0.0
  0
VERTEX
  8
ESRI_SHAPES
 66
     1
 10
548956.270770
 20
5046648.036592
 30
0.0
  0
VERTEX
  8
ESRI_SHAPES
 66
     1
 10
549200.015676
 20
5046445.660139
 30
0.0
  0
VERTEX
  8
ESRI_SHAPES
 66
     1
 10
549676.613419
 20
5046050.173064
 30
0.0
  0
VERTEX
  8
ESRI_SHAPES
 66
     1
 10
549950.075626
 20
5045823.054964
 30
0.0
  0
VERTEX
  8
ESRI_SHAPES
 66
     1
 10
550168.708100
 20
5045641.706886
 30
0.0
  0
VERTEX
  8
ESRI_SHAPES
 66
     1
 10
550243.636307
 20
5045579.580311
 30
0.0
  0
VERTEX
  8
ESRI_SHAPES
 66
     1
 10
550245.737229
 20
5045577.478001
 30
0.0
  0
VERTEX
  8
ESRI_SHAPES
 66
     1
 10
550250.534483
 20
5045573.278163
 30
0.0
  0
VERTEX
  8
ESRI_SHAPES
 66
     1
 10
550254.891992
 20
5045568.227133
 30
0.0
  0
VERTEX
  8
ESRI_SHAPES
 66
     1
 10
550259.100655
 20
5045563.174911
 30
0.0
  0
VERTEX
  8
ESRI_SHAPES
 66
     1
 10
550261.810601
 20
5045559.382162
 30
0.0
  0
VERTEX
  8
ESRI_SHAPES
 66
     1
 10
550442.383349
 20
5045300.176603
 30
0.0
  0
VERTEX
  8
ESRI_SHAPES
 66
     1
 10
550700.095043
 20
5044929.708094
 30
0.0
  0
VERTEX
  8
ESRI_SHAPES
 66
     1
 10
550964.165499
 20
5044549.977323
 30
0.0
  0
VERTEX
  8
ESRI_SHAPES
 66
     1
 10
551351.064365
 20
5043993.676794
 30
0.0
  0
VERTEX
  8
ESRI_SHAPES
 66
     1
 10
551352.117011
 20
5043992.413922
 30
0.0
  0
VERTEX
  8
ESRI_SHAPES
 66
     1
 10
551355.590099
 20
5043986.508723
 30
0.0
  0
VERTEX
  8
ESRI_SHAPES
 66
     1
 10
551358.761941
 20
5043981.024890
 30
0.0
  0
VERTEX
  8
ESRI_SHAPES
 66
     1
 10
551359.672649
 20
5043978.913189
 30
0.0
  0
VERTEX
  8
ESRI_SHAPES
 66
     1
 10
551442.736045
 20
5043800.313151
 30
0.0
  0
VERTEX
  8
ESRI_SHAPES
 66
     1
 10
551450.015193
 20
5043784.267254
 30
0.0
  0
VERTEX
  8
ESRI_SHAPES
 66
     1
 10
551791.415983
 20
5043050.033665
 30
0.0
  0
VERTEX
  8
ESRI_SHAPES
 66
     1
 10
552139.876122
 20
5042300.195132
 30
0.0
  0
VERTEX
  8
ESRI_SHAPES
 66
     1
 10
552200.081079
 20
5042171.003274
 30
0.0
  0
VERTEX
  8
ESRI_SHAPES
 66
     1
 10
552470.668111
 20
5041588.796425
 30
0.0
  0
VERTEX
  8
ESRI_SHAPES
 66
     1
 10
552531.467113
 20
5041550.312885
 30
0.0
  0
VERTEX
  8
ESRI_SHAPES
 66
     1
 10
552950.048075
 20
5041284.699618
 30
0.0
  0
VERTEX
  8
ESRI_SHAPES
 66
     1
 10
553694.293321
 20
5040812.943668
 30
0.0
  0
VERTEX
  8
ESRI_SHAPES
 66
     1
 10
553712.153089
 20
5038726.566524
 30
0.0
  0
VERTEX
  8
ESRI_SHAPES
 66
     1
 10
550659.430829
 20
5038701.605250
 30
0.0
  0
VERTEX
  8
ESRI_SHAPES
 66
     1
 10
550321.373932
 20
5038933.262710
 30
0.0
  0
VERTEX
  8
ESRI_SHAPES
 66
     1
 10
549950.028639
 20
5038913.342731
 30
0.0
  0
VERTEX
  8
ESRI_SHAPES
 66
     1
 10
549200.037144
 20
5038872.663898
 30
0.0
  0
VERTEX
  8
ESRI_SHAPES
 66
     1
 10
549095.915241
 20
5038867.186323
 30
0.0
  0
VERTEX
  8
ESRI_SHAPES
 66
     1
 10
549095.021178
 20
5038867.179328
 30
0.0
  0
VERTEX
  8
ESRI_SHAPES
 66
     1
 10
549090.554173
 20
5038866.720555
 30
0.0
  0
VERTEX
  8
ESRI_SHAPES
 66
     1
 10
549083.994389
 20
5038867.093070
 30
0.0
  0
VERTEX
  8
ESRI_SHAPES
 66
     1
 10
549077.431291
 20
5038867.889394
 30
0.0
  0
VERTEX
  8
ESRI_SHAPES
 66
     1
 10
549071.017205
 20
5038868.686890
 30
0.0
  0
VERTEX
  8
ESRI_SHAPES
 66
     1
 10
549064.596494
 20
5038870.331995
 30
0.0
  0
VERTEX
  8
ESRI_SHAPES
 66
     1
 10
549058.321484
 20
5038872.402073
 30
0.0
  0
VERTEX
  8
ESRI_SHAPES
 66
     1
 10
549052.195489
 20
5038874.473322
 30
0.0
  0
VERTEX
  8
ESRI_SHAPES
 66
     1
 10
549046.211883
 20
5038877.393345
 30
0.0
  0
VERTEX
  8
ESRI_SHAPES
 66
     1
 10
549044.417134
 20
5038878.226973
 30
0.0
  0
VERTEX
  8
ESRI_SHAPES
 66
     1
 10
548826.862380
 20
5038991.387632
 30
0.0
  0
VERTEX
  8
ESRI_SHAPES
 66
     1
 10
548775.178535
 20
5045630.273781
 30
0.0
  0
SEQEND
  8
ESRI_SHAPES
  0
TEXT
  8
ESRI_TEXT
 10
550714.507455
 20
5041718.792361
 30
0.0
 40
25.394424
  1
45122E33
  0
POLYLINE
  8
ESRI_SHAPES
 66
     1
 10
0.0
 20
0.0
 30
0.0
 70
     1
  0
VERTEX
  8
ESRI_SHAPES
 66
     1
 10
556769.233502
 20
5038753.709000
 30
0.0
  0
VERTEX
  8
ESRI_SHAPES
 66
     1
 10
553712.154903
 20
5038726.354623
 30
0.0
  0
VERTEX
  8
ESRI_SHAPES
 66
     1
 10
553694.286980
 20
5040812.902567
 30
0.0
  0
VERTEX
  8
ESRI_SHAPES
 66
     1
 10
553700.000000
 20
5040809.281471
 30
0.0
  0
VERTEX
  8
ESRI_SHAPES
 66
     1
 10
553714.643418
 20
5040800.000000
 30
0.0
  0
VERTEX
  8
ESRI_SHAPES
 66
     1
 10
554450.000000
 20
5040333.907260
 30
0.0
  0
VERTEX
  8
ESRI_SHAPES
 66
     1
 10
554897.921742
 20
5040050.000000
 30
0.0
  0
VERTEX
  8
ESRI_SHAPES
 66
     1
 10
555200.000000
 20
5039858.533048
 30
0.0
  0
VERTEX
  8
ESRI_SHAPES
 66
     1
 10
555950.000000
 20
5039383.158837
 30
0.0
  0
VERTEX
  8
ESRI_SHAPES
 66
     1
 10
556081.200070
 20
5039300.000061
 30
0.0
  0
VERTEX
  8
ESRI_SHAPES
 66
     1
 10
556609.085693
 20
5038965.409119
 30
0.0
  0
VERTEX
  8
ESRI_SHAPES
 66
     1
 10
556611.107483
 20
5038964.093323
 30
0.0
  0
VERTEX
  8
ESRI_SHAPES
 66
     1
 10
556616.426514
 20
5038960.281677
 30
0.0
  0
VERTEX
  8
ESRI_SHAPES
 66
     1
 10
556621.484924
 20
5038956.130310
 30
0.0
  0
VERTEX
  8
ESRI_SHAPES
 66
     1
 10
556626.261108
 20
5038951.656921
 30
0.0
  0
VERTEX
  8
ESRI_SHAPES
 66
     1
 10
556630.734314
 20
5038946.880920
 30
0.0
  0
VERTEX
  8
ESRI_SHAPES
 66
     1
 10
556634.885681
 20
5038941.822510
 30
0.0
  0
VERTEX
  8
ESRI_SHAPES
 66
     1
 10
556636.942688
 20
5038939.043701
 30
0.0
  0
VERTEX
  8
ESRI_SHAPES
 66
     1
 10
556700.000122
 20
5038850.702515
 30
0.0
  0
SEQEND
  8
ESRI_SHAPES
  0
TEXT
  8
ESRI_TEXT
 10
554772.014690
 20
5039434.664685
 30
0.0
 40
25.394424
  1
45122E34
  0
ENDSEC
  0
EOF
